  0
SECTION
  2
HEADER
  9
$ACADVER
  1
AC1015
  9
$ACADMAINTVER
 70
     6
  9
$DWGCODEPAGE
  3
ANSI_1254
  9
$INSBASE
 10
0.0
 20
0.0
 30
0.0
  9
$EXTMIN
 10
0.0
 20
0.0
 30
0.0
  9
$EXTMAX
 10
279.4
 20
215.9
 30
0.0
  9
$LIMMIN
 10
0.0
 20
0.0
  9
$LIMMAX
 10
279.4
 20
215.9
  9
$ORTHOMODE
 70
     0
  9
$REGENMODE
 70
     1
  9
$FILLMODE
 70
     1
  9
$QTEXTMODE
 70
     0
  9
$MIRRTEXT
 70
     1
  9
$LTSCALE
 40
1.0
  9
$ATTMODE
 70
     1
  9
$TEXTSIZE
 40
3.5
  9
$TRACEWID
 40
1.0
  9
$TEXTSTYLE
  7
Standard
  9
$CLAYER
  8
0
  9
$CELTYPE
  6
ByLayer
  9
$CECOLOR
 62
   256
  9
$CELTSCALE
 40
1.0
  9
$DISPSILH
 70
     0
  9
$DIMSCALE
 40
1.0
  9
$DIMASZ
 40
3.5
  9
$DIMEXO
 40
1.0
  9
$DIMDLI
 40
3.75
  9
$DIMRND
 40
0.0
  9
$DIMDLE
 40
0.0
  9
$DIMEXE
 40
1.0
  9
$DIMTP
 40
0.0
  9
$DIMTM
 40
0.0
  9
$DIMTXT
 40
3.5
  9
$DIMCEN
 40
2.5
  9
$DIMTSZ
 40
0.0
  9
$DIMTOL
 70
     0
  9
$DIMLIM
 70
     0
  9
$DIMTIH
 70
     1
  9
$DIMTOH
 70
     1
  9
$DIMSE1
 70
     0
  9
$DIMSE2
 70
     0
  9
$DIMTAD
 70
     1
  9
$DIMZIN
 70
     0
  9
$DIMBLK
  1

  9
$DIMASO
 70
     1
  9
$DIMSHO
 70
     1
  9
$DIMPOST
  1

  9
$DIMAPOST
  1

  9
$DIMALT
 70
     0
  9
$DIMALTD
 70
     3
  9
$DIMALTF
 40
0.0393700787
  9
$DIMLFAC
 40
1.0
  9
$DIMTOFL
 70
     1
  9
$DIMTVP
 40
0.0
  9
$DIMTIX
 70
     0
  9
$DIMSOXD
 70
     0
  9
$DIMSAH
 70
     0
  9
$DIMBLK1
  1

  9
$DIMBLK2
  1

  9
$DIMSTYLE
  2
ISO-25
  9
$DIMCLRD
 70
     0
  9
$DIMCLRE
 70
     0
  9
$DIMCLRT
 70
     0
  9
$DIMTFAC
 40
1.0
  9
$DIMGAP
 40
1.524
  9
$DIMJUST
 70
     0
  9
$DIMSD1
 70
     0
  9
$DIMSD2
 70
     0
  9
$DIMTOLJ
 70
     0
  9
$DIMTZIN
 70
     0
  9
$DIMALTZ
 70
     0
  9
$DIMALTTZ
 70
     0
  9
$DIMUPT
 70
     0
  9
$DIMDEC
 70
     2
  9
$DIMTDEC
 70
     2
  9
$DIMALTU
 70
     2
  9
$DIMALTTD
 70
     3
  9
$DIMTXSTY
  7
Standard
  9
$DIMAUNIT
 70
     0
  9
$DIMADEC
 70
     2
  9
$DIMALTRND
 40
0.0
  9
$DIMAZIN
 70
     0
  9
$DIMDSEP
 70
    44
  9
$DIMATFIT
 70
     3
  9
$DIMFRAC
 70
     0
  9
$DIMLDRBLK
  1

  9
$DIMLUNIT
 70
     2
  9
$DIMLWD
 70
    -2
  9
$DIMLWE
 70
    -2
  9
$DIMTMOVE
 70
     0
  9
$LUNITS
 70
     2
  9
$LUPREC
 70
     2
  9
$SKETCHINC
 40
1.0
  9
$FILLETRAD
 40
10.0
  9
$AUNITS
 70
     0
  9
$AUPREC
 70
     2
  9
$MENU
  1
.
  9
$ELEVATION
 40
0.0
  9
$PELEVATION
 40
0.0
  9
$THICKNESS
 40
0.0
  9
$LIMCHECK
 70
     0
  9
$CHAMFERA
 40
0.0
  9
$CHAMFERB
 40
0.0
  9
$CHAMFERC
 40
0.0
  9
$CHAMFERD
 40
0.0
  9
$SKPOLY
 70
     0
  9
$TDCREATE
 40
2459741.603187627
  9
$TDUCREATE
 40
2459741.478187627
  9
$TDUPDATE
 40
2459741.603187812
  9
$TDUUPDATE
 40
2459741.478187812
  9
$TDINDWG
 40
0.0000000116
  9
$TDUSRTIMER
 40
0.0000000116
  9
$USRTIMER
 70
     1
  9
$ANGBASE
 50
0.0
  9
$ANGDIR
 70
     0
  9
$PDMODE
 70
     0
  9
$PDSIZE
 40
-1.0
  9
$PLINEWID
 40
0.0
  9
$SPLFRAME
 70
     0
  9
$SPLINETYPE
 70
     6
  9
$SPLINESEGS
 70
     8
  9
$HANDSEED
  5
131
  9
$SURFTAB1
 70
     6
  9
$SURFTAB2
 70
     6
  9
$SURFTYPE
 70
     6
  9
$SURFU
 70
     6
  9
$SURFV
 70
     6
  9
$UCSBASE
  2

  9
$UCSNAME
  2

  9
$UCSORG
 10
0.0
 20
0.0
 30
0.0
  9
$UCSXDIR
 10
1.0
 20
0.0
 30
0.0
  9
$UCSYDIR
 10
0.0
 20
1.0
 30
0.0
  9
$UCSORTHOREF
  2

  9
$UCSORTHOVIEW
 70
     0
  9
$UCSORGTOP
 10
0.0
 20
0.0
 30
0.0
  9
$UCSORGBOTTOM
 10
0.0
 20
0.0
 30
0.0
  9
$UCSORGLEFT
 10
0.0
 20
0.0
 30
0.0
  9
$UCSORGRIGHT
 10
0.0
 20
0.0
 30
0.0
  9
$UCSORGFRONT
 10
0.0
 20
0.0
 30
0.0
  9
$UCSORGBACK
 10
0.0
 20
0.0
 30
0.0
  9
$PUCSBASE
  2

  9
$PUCSNAME
  2

  9
$PUCSORG
 10
0.0
 20
0.0
 30
0.0
  9
$PUCSXDIR
 10
1.0
 20
0.0
 30
0.0
  9
$PUCSYDIR
 10
0.0
 20
1.0
 30
0.0
  9
$PUCSORTHOREF
  2

  9
$PUCSORTHOVIEW
 70
     0
  9
$PUCSORGTOP
 10
0.0
 20
0.0
 30
0.0
  9
$PUCSORGBOTTOM
 10
0.0
 20
0.0
 30
0.0
  9
$PUCSORGLEFT
 10
0.0
 20
0.0
 30
0.0
  9
$PUCSORGRIGHT
 10
0.0
 20
0.0
 30
0.0
  9
$PUCSORGFRONT
 10
0.0
 20
0.0
 30
0.0
  9
$PUCSORGBACK
 10
0.0
 20
0.0
 30
0.0
  9
$USERI1
 70
     0
  9
$USERI2
 70
     0
  9
$USERI3
 70
     0
  9
$USERI4
 70
     0
  9
$USERI5
 70
     0
  9
$USERR1
 40
0.0
  9
$USERR2
 40
0.0
  9
$USERR3
 40
0.0
  9
$USERR4
 40
0.0
  9
$USERR5
 40
0.0
  9
$WORLDVIEW
 70
     1
  9
$SHADEDGE
 70
     3
  9
$SHADEDIF
 70
    70
  9
$TILEMODE
 70
     1
  9
$MAXACTVP
 70
    64
  9
$PINSBASE
 10
0.0
 20
0.0
 30
0.0
  9
$PLIMCHECK
 70
     0
  9
$PEXTMIN
 10
1.0000000000E+20
 20
1.0000000000E+20
 30
1.0000000000E+20
  9
$PEXTMAX
 10
-1.0000000000E+20
 20
-1.0000000000E+20
 30
-1.0000000000E+20
  9
$PLIMMIN
 10
0.0
 20
0.0
  9
$PLIMMAX
 10
420.0
 20
297.0
  9
$UNITMODE
 70
     0
  9
$VISRETAIN
 70
     1
  9
$PLINEGEN
 70
     0
  9
$PSLTSCALE
 70
     1
  9
$TREEDEPTH
 70
  3020
  9
$CMLSTYLE
  2
Standard
  9
$CMLJUST
 70
     0
  9
$CMLSCALE
 40
20.0
  9
$PROXYGRAPHICS
 70
     1
  9
$MEASUREMENT
 70
     1
  9
$CELWEIGHT
370
    -1
  9
$ENDCAPS
280
     0
  9
$JOINSTYLE
280
     0
  9
$LWDISPLAY
290
     1
  9
$INSUNITS
 70
     4
  9
$HYPERLINKBASE
  1

  9
$STYLESHEET
  1

  9
$XEDIT
290
     1
  9
$CEPSNTYPE
380
     0
  9
$PSTYLEMODE
290
     1
  9
$FINGERPRINTGUID
  2
{9a1a04f0-4888-482d-84fe-8fae42ed9d0d}
  9
$VERSIONGUID
  2
{FAEB1C32-E019-11D5-929B-00C0DF256EC4}
  9
$EXTNAMES
290
     1
  9
$PSVPSCALE
 40
0.0
  9
$OLESTARTUP
290
     0
  0
ENDSEC
  0
SECTION
  2
CLASSES
  0
CLASS
  1
ACDBDICTIONARYWDFLT
  2
AcDbDictionaryWithDefault
  3
ObjectDBX Classes
 90
        0
280
     0
281
     0
  0
CLASS
  1
VISUALSTYLE
  2
AcDbVisualStyle
  3
ObjectDBX Classes
 90
     4095
280
     0
281
     0
  0
CLASS
  1
MATERIAL
  2
AcDbMaterial
  3
ObjectDBX Classes
 90
     1153
280
     0
281
     0
  0
CLASS
  1
SCALE
  2
AcDbScale
  3
ObjectDBX Classes
 90
     1153
280
     0
281
     0
  0
CLASS
  1
TABLESTYLE
  2
AcDbTableStyle
  3
ObjectDBX Classes
 90
     4095
280
     0
281
     0
  0
CLASS
  1
MLEADERSTYLE
  2
AcDbMLeaderStyle
  3
ACDB_MLEADERSTYLE_CLASS
 90
     4095
280
     0
281
     0
  0
CLASS
  1
SUN
  2
AcDbSun
  3
SCENEOE
 90
     1153
280
     0
281
     0
  0
CLASS
  1
ACDBPLACEHOLDER
  2
AcDbPlaceHolder
  3
ObjectDBX Classes
 90
        0
280
     0
281
     0
  0
CLASS
  1
LAYOUT
  2
AcDbLayout
  3
ObjectDBX Classes
 90
        0
280
     0
281
     0
  0
ENDSEC
  0
SECTION
  2
TABLES
  0
TABLE
  2
VPORT
  5
8
330
0
100
AcDbSymbolTable
 70
     1
  0
VPORT
  5
29
330
8
100
AcDbSymbolTableRecord
100
AcDbViewportTableRecord
  2
*Active
 70
     0
 10
0.0
 20
0.0
 11
1.0
 21
1.0
 12
139.7
 22
107.95
 13
0.0
 23
0.0
 14
10.0
 24
10.0
 15
10.0
 25
10.0
 16
0.0
 26
0.0
 36
1.0
 17
0.0
 27
0.0
 37
0.0
 40
215.9
 41
1.2941176471
 42
50.0
 43
0.0
 44
0.0
 50
0.0
 51
0.0
 71
     0
 72
  2000
 73
     1
 74
     3
 75
     0
 76
     0
 77
     0
 78
     0
281
     0
 65
     1
110
0.0
120
0.0
130
0.0
111
1.0
121
0.0
131
0.0
112
0.0
122
1.0
132
0.0
 79
     0
146
0.0
  0
ENDTAB
  0
TABLE
  2
LTYPE
  5
5
330
0
100
AcDbSymbolTable
 70
     6
  0
LTYPE
  5
14
330
5
100
AcDbSymbolTableRecord
100
AcDbLinetypeTableRecord
  2
ByBlock
 70
     0
  3

 72
    65
 73
     0
 40
0.0
  0
LTYPE
  5
15
330
5
100
AcDbSymbolTableRecord
100
AcDbLinetypeTableRecord
  2
ByLayer
 70
     0
  3

 72
    65
 73
     0
 40
0.0
  0
LTYPE
  5
16
330
5
100
AcDbSymbolTableRecord
100
AcDbLinetypeTableRecord
  2
Continuous
 70
     0
  3
Solid line
 72
    65
 73
     0
 40
0.0
  0
LTYPE
  5
6E
330
5
100
AcDbSymbolTableRecord
100
AcDbLinetypeTableRecord
  2
HIDDEN
 70
     0
  3
Hidden __ __ __ __ __ __ __ __ __ __ __ __ __ __
 72
    65
 73
     2
 40
1.905
 49
1.27
 74
     0
 49
-0.635
 74
     0
  0
LTYPE
  5
6F
330
5
100
AcDbSymbolTableRecord
100
AcDbLinetypeTableRecord
  2
PHANTOM
 70
     0
  3
Phantom ______  __  __  ______  __  __  ______
 72
    65
 73
     6
 40
12.7
 49
6.35
 74
     0
 49
-1.27
 74
     0
 49
1.27
 74
     0
 49
-1.27
 74
     0
 49
1.27
 74
     0
 49
-1.27
 74
     0
  0
LTYPE
  5
70
330
5
100
AcDbSymbolTableRecord
100
AcDbLinetypeTableRecord
  2
CENTER
 70
     0
  3
Center ____ _ ____ _ ____ _ ____ _ ____ _ ____
 72
    65
 73
     4
 40
10.16
 49
6.35
 74
     0
 49
-1.27
 74
     0
 49
1.27
 74
     0
 49
-1.27
 74
     0
  0
LTYPE
  5
71
330
5
100
AcDbSymbolTableRecord
100
AcDbLinetypeTableRecord
  2
CENTERX2
 70
     0
  3
Center (2x) ________  __  ________  __  _____
 72
    65
 73
     4
 40
20.32
 49
12.7
 74
     0
 49
-2.54
 74
     0
 49
2.54
 74
     0
 49
-2.54
 74
     0
  0
LTYPE
  5
72
330
5
100
AcDbSymbolTableRecord
100
AcDbLinetypeTableRecord
  2
DOT2
 70
     0
  3
Dot (.5x) ........................................
 72
    65
 73
     2
 40
0.635
 49
0.0
 74
     0
 49
-0.635
 74
     0
  0
ENDTAB
  0
TABLE
  2
LAYER
  5
2
330
0
100
AcDbSymbolTable
 70
    17
  0
LAYER
  5
10
330
2
100
AcDbSymbolTableRecord
100
AcDbLayerTableRecord
  2
0
 70
     0
 62
     7
  6
Continuous
370
    -3
390
F
  0
LAYER
  5
73
330
2
100
AcDbSymbolTableRecord
100
AcDbLayerTableRecord
  2
FORMAT
 70
     0
 62
     7
  6
Continuous
370
    -3
390
F
  0
LAYER
  5
74
330
2
100
AcDbSymbolTableRecord
100
AcDbLayerTableRecord
  2
YARDIMCI_GEOMETRI
 70
     0
 62
    -6
  6
Continuous
290
     0
370
    -3
390
F
  0
LAYER
  5
75
330
2
100
AcDbSymbolTableRecord
100
AcDbLayerTableRecord
  2
SAYFA_CERCEVESI
 70
     0
 62
     7
  6
Continuous
370
    25
390
F
  0
LAYER
  5
76
330
2
100
AcDbSymbolTableRecord
100
AcDbLayerTableRecord
  2
ANTET
 70
     0
 62
     7
  6
Continuous
370
    -3
390
F
  0
LAYER
  5
77
330
2
100
AcDbSymbolTableRecord
100
AcDbLayerTableRecord
  2
OLCU
 70
     0
 62
   150
  6
Continuous
370
    -3
390
F
  0
LAYER
  5
78
330
2
100
AcDbSymbolTableRecord
100
AcDbLayerTableRecord
  2
METIN
 70
     0
 62
    96
  6
Continuous
370
    -3
390
F
  0
LAYER
  5
79
330
2
100
AcDbSymbolTableRecord
100
AcDbLayerTableRecord
  2
BALON
 70
     0
 62
     5
  6
Continuous
370
    -3
390
F
  0
LAYER
  5
7A
330
2
100
AcDbSymbolTableRecord
100
AcDbLayerTableRecord
  2
VURGU
 70
     0
 62
     7
  6
Continuous
370
    -3
390
F
  0
LAYER
  5
7B
330
2
100
AcDbSymbolTableRecord
100
AcDbLayerTableRecord
  2
SILIK
 70
     0
 62
     7
  6
Continuous
370
    -3
390
F
  0
LAYER
  5
7C
330
2
100
AcDbSymbolTableRecord
100
AcDbLayerTableRecord
  2
MODEL
 70
     0
 62
     7
  6
Continuous
370
    -3
390
F
  0
LAYER
  5
7D
330
2
100
AcDbSymbolTableRecord
100
AcDbLayerTableRecord
  2
DETAYLANDıRMA
 70
     0
 62
   190
  6
Continuous
370
    -3
390
F
  0
LAYER
  5
7E
330
2
100
AcDbSymbolTableRecord
100
AcDbLayerTableRecord
  2
TOLERANS
 70
     0
 62
   230
  6
Continuous
370
    -3
390
F
  0
LAYER
  5
7F
330
2
100
AcDbSymbolTableRecord
100
AcDbLayerTableRecord
  2
MERKEZ_CIZGILERI
 70
     0
 62
    30
  6
Continuous
370
    -3
390
F
  0
LAYER
  5
80
330
2
100
AcDbSymbolTableRecord
100
AcDbLayerTableRecord
  2
KESIT-DETAY_CIZGILERI
 70
     0
 62
     7
  6
Continuous
370
    -3
390
F
  0
LAYER
  5
81
330
2
100
AcDbSymbolTableRecord
100
AcDbLayerTableRecord
  2
\U+041E\U+0421\U+0415\U+0412\U+042B\U+0415
 70
     0
 62
     7
  6
Continuous
370
    -3
390
F
  0
LAYER
  5
82
330
2
100
AcDbSymbolTableRecord
100
AcDbLayerTableRecord
  2
\U+0412\U+041E\U+0414\U+042F\U+041D\U+042B\U+0415_\U+0417\U+041D\U+0410\U+041A\U+0418
 70
     0
 62
    11
  6
Continuous
370
    -3
390
F
  0
ENDTAB
  0
TABLE
  2
STYLE
  5
3
330
0
100
AcDbSymbolTable
 70
     1
  0
STYLE
  5
11
330
3
100
AcDbSymbolTableRecord
100
AcDbTextStyleTableRecord
  2
Standard
 70
     0
 40
0.0
 41
1.0
 50
0.0
 71
     0
 42
3.5
  3
txt
  4

  0
ENDTAB
  0
TABLE
  2
VIEW
  5
6
330
0
100
AcDbSymbolTable
 70
     0
  0
ENDTAB
  0
TABLE
  2
UCS
  5
7
330
0
100
AcDbSymbolTable
 70
     0
  0
ENDTAB
  0
TABLE
  2
APPID
  5
9
330
0
100
AcDbSymbolTable
 70
     1
  0
APPID
  5
12
330
9
100
AcDbSymbolTableRecord
100
AcDbRegAppTableRecord
  2
ACAD
 70
     0
  0
ENDTAB
  0
TABLE
  2
DIMSTYLE
  5
A
330
0
100
AcDbSymbolTable
 70
     1
100
AcDbDimStyleTable
  0
DIMSTYLE
105
27
330
A
100
AcDbSymbolTableRecord
100
AcDbDimStyleTableRecord
  2
ISO-25
 70
     0
 41
2.5
 42
0.625
 43
3.75
 44
1.25
 73
     0
 74
     0
 77
     1
 78
     8
140
2.5
141
2.5
143
0.0393700787
147
0.625
171
     3
172
     1
178
     0
271
     2
272
     2
274
     3
278
    44
283
     0
284
     8
340
11
  0
ENDTAB
  0
TABLE
  2
BLOCK_RECORD
  5
1
330
0
100
AcDbSymbolTable
 70
     5
  0
BLOCK_RECORD
  5
1F
330
1
100
AcDbSymbolTableRecord
100
AcDbBlockTableRecord
  2
*Model_Space
340
22
  0
BLOCK_RECORD
  5
1B
330
1
100
AcDbSymbolTableRecord
100
AcDbBlockTableRecord
  2
*Paper_Space
340
1E
  0
BLOCK_RECORD
  5
23
330
1
100
AcDbSymbolTableRecord
100
AcDbBlockTableRecord
  2
*Paper_Space0
340
26
  0
BLOCK_RECORD
  5
AB
330
1
100
AcDbSymbolTableRecord
100
AcDbBlockTableRecord
  2
SW_CENTERMARKSYMBOL_0
340
0
102
{BLKREFS
331
B6
102
}
  0
BLOCK_RECORD
  5
C9
330
1
100
AcDbSymbolTableRecord
100
AcDbBlockTableRecord
  2
SW_CENTERMARKSYMBOL_1
340
0
102
{BLKREFS
331
D4
102
}
  0
BLOCK_RECORD
  5
ED
330
1
100
AcDbSymbolTableRecord
100
AcDbBlockTableRecord
  2
SW_CENTERMARKSYMBOL_2
340
0
102
{BLKREFS
331
F8
102
}
  0
BLOCK_RECORD
  5
10B
330
1
100
AcDbSymbolTableRecord
100
AcDbBlockTableRecord
  2
SW_CENTERMARKSYMBOL_3
340
0
102
{BLKREFS
331
116
102
}
  0
ENDTAB
  0
ENDSEC
  0
SECTION
  2
BLOCKS
  0
BLOCK
  5
20
330
1F
100
AcDbEntity
  8
0
100
AcDbBlockBegin
  2
*Model_Space
 70
     0
 10
0.0
 20
0.0
 30
0.0
  3
*Model_Space
  1

  0
ENDBLK
  5
21
330
1F
100
AcDbEntity
  8
0
100
AcDbBlockEnd
  0
BLOCK
  5
1C
330
1B
100
AcDbEntity
 67
     1
  8
0
100
AcDbBlockBegin
  2
*Paper_Space
 70
     0
 10
0.0
 20
0.0
 30
0.0
  3
*Paper_Space
  1

  0
ENDBLK
  5
1D
330
1B
100
AcDbEntity
 67
     1
  8
0
100
AcDbBlockEnd
  0
BLOCK
  5
24
330
23
100
AcDbEntity
  8
0
100
AcDbBlockBegin
  2
*Paper_Space0
 70
     0
 10
0.0
 20
0.0
 30
0.0
  3
*Paper_Space0
  1

  0
ENDBLK
  5
25
330
23
100
AcDbEntity
  8
0
100
AcDbBlockEnd
  0
BLOCK
  5
AC
330
AB
100
AcDbEntity
  8
0
100
AcDbBlockBegin
  2
SW_CENTERMARKSYMBOL_0
 70
     0
 10
0.0
 20
0.0
 30
0.0
  3
SW_CENTERMARKSYMBOL_0
  1

  0
LINE
  5
AE
330
AB
100
AcDbEntity
  8
FORMAT
 62
     0
100
AcDbLine
 10
0.0
 20
0.0
 30
0.0
 11
0.0
 21
2.5
 31
0.0
  0
LINE
  5
AF
330
AB
100
AcDbEntity
  8
FORMAT
 62
     0
100
AcDbLine
 10
0.0
 20
0.0
 30
0.0
 11
-2.5
 21
0.0
 31
0.0
  0
LINE
  5
B0
330
AB
100
AcDbEntity
  8
FORMAT
 62
     0
100
AcDbLine
 10
0.0
 20
0.0
 30
0.0
 11
0.0
 21
-2.5
 31
0.0
  0
LINE
  5
B1
330
AB
100
AcDbEntity
  8
FORMAT
 62
     0
100
AcDbLine
 10
0.0
 20
0.0
 30
0.0
 11
2.5
 21
0.0
 31
0.0
  0
LINE
  5
B2
330
AB
100
AcDbEntity
  8
FORMAT
 62
     0
100
AcDbLine
 10
0.0
 20
5.0
 30
0.0
 11
0.0
 21
59.0
 31
0.0
  0
LINE
  5
B3
330
AB
100
AcDbEntity
  8
FORMAT
 62
     0
100
AcDbLine
 10
-5.0
 20
0.0
 30
0.0
 11
-59.0
 21
0.0
 31
0.0
  0
LINE
  5
B4
330
AB
100
AcDbEntity
  8
FORMAT
 62
     0
100
AcDbLine
 10
0.0
 20
-5.0
 30
0.0
 11
0.0
 21
-59.0
 31
0.0
  0
LINE
  5
B5
330
AB
100
AcDbEntity
  8
FORMAT
 62
     0
100
AcDbLine
 10
5.0
 20
0.0
 30
0.0
 11
59.0
 21
0.0
 31
0.0
  0
ENDBLK
  5
AD
330
AB
100
AcDbEntity
  8
0
100
AcDbBlockEnd
  0
BLOCK
  5
CA
330
C9
100
AcDbEntity
  8
0
100
AcDbBlockBegin
  2
SW_CENTERMARKSYMBOL_1
 70
     0
 10
0.0
 20
0.0
 30
0.0
  3
SW_CENTERMARKSYMBOL_1
  1

  0
LINE
  5
CC
330
C9
100
AcDbEntity
  8
FORMAT
 62
     0
100
AcDbLine
 10
0.0
 20
0.0
 30
0.0
 11
0.0
 21
2.5
 31
0.0
  0
LINE
  5
CD
330
C9
100
AcDbEntity
  8
FORMAT
 62
     0
100
AcDbLine
 10
0.0
 20
0.0
 30
0.0
 11
-2.5
 21
0.0
 31
0.0
  0
LINE
  5
CE
330
C9
100
AcDbEntity
  8
FORMAT
 62
     0
100
AcDbLine
 10
0.0
 20
0.0
 30
0.0
 11
0.0
 21
-2.5
 31
0.0
  0
LINE
  5
CF
330
C9
100
AcDbEntity
  8
FORMAT
 62
     0
100
AcDbLine
 10
0.0
 20
0.0
 30
0.0
 11
2.5
 21
0.0
 31
0.0
  0
LINE
  5
D0
330
C9
100
AcDbEntity
  8
FORMAT
 62
     0
100
AcDbLine
 10
0.0
 20
5.0
 30
0.0
 11
0.0
 21
61.0
 31
0.0
  0
LINE
  5
D1
330
C9
100
AcDbEntity
  8
FORMAT
 62
     0
100
AcDbLine
 10
-5.0
 20
0.0
 30
0.0
 11
-61.0
 21
0.0
 31
0.0
  0
LINE
  5
D2
330
C9
100
AcDbEntity
  8
FORMAT
 62
     0
100
AcDbLine
 10
0.0
 20
-5.0
 30
0.0
 11
0.0
 21
-61.0
 31
0.0
  0
LINE
  5
D3
330
C9
100
AcDbEntity
  8
FORMAT
 62
     0
100
AcDbLine
 10
5.0
 20
0.0
 30
0.0
 11
61.0
 21
0.0
 31
0.0
  0
ENDBLK
  5
CB
330
C9
100
AcDbEntity
  8
0
100
AcDbBlockEnd
  0
BLOCK
  5
EE
330
ED
100
AcDbEntity
  8
0
100
AcDbBlockBegin
  2
SW_CENTERMARKSYMBOL_2
 70
     0
 10
0.0
 20
0.0
 30
0.0
  3
SW_CENTERMARKSYMBOL_2
  1

  0
LINE
  5
F0
330
ED
100
AcDbEntity
  8
FORMAT
 62
     0
100
AcDbLine
 10
0.0
 20
0.0
 30
0.0
 11
0.0
 21
2.5
 31
0.0
  0
LINE
  5
F1
330
ED
100
AcDbEntity
  8
FORMAT
 62
     0
100
AcDbLine
 10
0.0
 20
0.0
 30
0.0
 11
-2.5
 21
0.0
 31
0.0
  0
LINE
  5
F2
330
ED
100
AcDbEntity
  8
FORMAT
 62
     0
100
AcDbLine
 10
0.0
 20
0.0
 30
0.0
 11
0.0
 21
-2.5
 31
0.0
  0
LINE
  5
F3
330
ED
100
AcDbEntity
  8
FORMAT
 62
     0
100
AcDbLine
 10
0.0
 20
0.0
 30
0.0
 11
2.5
 21
0.0
 31
0.0
  0
LINE
  5
F4
330
ED
100
AcDbEntity
  8
FORMAT
 62
     0
100
AcDbLine
 10
0.0
 20
5.0
 30
0.0
 11
0.0
 21
59.0
 31
0.0
  0
LINE
  5
F5
330
ED
100
AcDbEntity
  8
FORMAT
 62
     0
100
AcDbLine
 10
-5.0
 20
0.0
 30
0.0
 11
-59.0
 21
0.0
 31
0.0
  0
LINE
  5
F6
330
ED
100
AcDbEntity
  8
FORMAT
 62
     0
100
AcDbLine
 10
0.0
 20
-5.0
 30
0.0
 11
0.0
 21
-59.0
 31
0.0
  0
LINE
  5
F7
330
ED
100
AcDbEntity
  8
FORMAT
 62
     0
100
AcDbLine
 10
5.0
 20
0.0
 30
0.0
 11
59.0
 21
0.0
 31
0.0
  0
ENDBLK
  5
EF
330
ED
100
AcDbEntity
  8
0
100
AcDbBlockEnd
  0
BLOCK
  5
10C
330
10B
100
AcDbEntity
  8
0
100
AcDbBlockBegin
  2
SW_CENTERMARKSYMBOL_3
 70
     0
 10
0.0
 20
0.0
 30
0.0
  3
SW_CENTERMARKSYMBOL_3
  1

  0
LINE
  5
10E
330
10B
100
AcDbEntity
  8
FORMAT
 62
     0
100
AcDbLine
 10
0.0
 20
0.0
 30
0.0
 11
0.0
 21
2.5
 31
0.0
  0
LINE
  5
10F
330
10B
100
AcDbEntity
  8
FORMAT
 62
     0
100
AcDbLine
 10
0.0
 20
0.0
 30
0.0
 11
-2.5
 21
0.0
 31
0.0
  0
LINE
  5
110
330
10B
100
AcDbEntity
  8
FORMAT
 62
     0
100
AcDbLine
 10
0.0
 20
0.0
 30
0.0
 11
0.0
 21
-2.5
 31
0.0
  0
LINE
  5
111
330
10B
100
AcDbEntity
  8
FORMAT
 62
     0
100
AcDbLine
 10
0.0
 20
0.0
 30
0.0
 11
2.5
 21
0.0
 31
0.0
  0
LINE
  5
112
330
10B
100
AcDbEntity
  8
FORMAT
 62
     0
100
AcDbLine
 10
0.0
 20
5.0
 30
0.0
 11
0.0
 21
61.0
 31
0.0
  0
LINE
  5
113
330
10B
100
AcDbEntity
  8
FORMAT
 62
     0
100
AcDbLine
 10
-5.0
 20
0.0
 30
0.0
 11
-61.0
 21
0.0
 31
0.0
  0
LINE
  5
114
330
10B
100
AcDbEntity
  8
FORMAT
 62
     0
100
AcDbLine
 10
0.0
 20
-5.0
 30
0.0
 11
0.0
 21
-61.0
 31
0.0
  0
LINE
  5
115
330
10B
100
AcDbEntity
  8
FORMAT
 62
     0
100
AcDbLine
 10
5.0
 20
0.0
 30
0.0
 11
61.0
 21
0.0
 31
0.0
  0
ENDBLK
  5
10D
330
10B
100
AcDbEntity
  8
0
100
AcDbBlockEnd
  0
ENDSEC
  0
SECTION
  2
ENTITIES
  0
LINE
  5
83
330
1F
100
AcDbEntity
  8
0
  6
Continuous
 62
     7
370
    25
100
AcDbLine
 10
167.5377684855
 20
222.5471799611
 30
0.0
 11
111.7955610742
 21
166.8049725499
 31
0.0
  0
LINE
  5
84
330
1F
100
AcDbEntity
  8
0
  6
Continuous
 62
     7
370
    25
100
AcDbLine
 10
194.5270544731
 20
84.073479151
 30
0.0
 11
250.2692618843
 21
139.8156865623
 31
0.0
  0
ARC
  5
85
330
1F
100
AcDbEntity
  8
0
  6
Continuous
 62
     7
370
    25
100
AcDbCircle
 10
195.5877146448
 20
83.0128189792
 30
0.0
 40
1.500000000000012
100
AcDbArc
 50
135.0
 51
180.0
  0
ARC
  5
86
330
1F
100
AcDbEntity
  8
0
  6
Continuous
 62
     7
370
    25
100
AcDbCircle
 10
195.5877146448
 20
83.0128189792
 30
0.0
 40
118.5
100
AcDbArc
 50
135.0
 51
180.0
  0
LINE
  5
87
330
1F
100
AcDbEntity
  8
0
  6
Continuous
 62
     7
370
    25
100
AcDbLine
 10
77.0877146448
 20
83.0128189792
 30
0.0
 11
77.0877146448
 21
4.1814332617
 31
0.0
  0
LINE
  5
88
330
1F
100
AcDbEntity
  8
0
  6
Continuous
 62
     7
370
    25
100
AcDbLine
 10
194.0877146448
 20
4.1814332617
 30
0.0
 11
194.0877146448
 21
83.0128189792
 31
0.0
  0
CIRCLE
  5
89
330
1F
100
AcDbEntity
  8
0
  6
Continuous
 62
     7
370
    25
100
AcDbCircle
 10
135.5877146448
 20
14.1814332617
 30
0.0
 40
5.0
  0
CIRCLE
  5
8A
330
1F
100
AcDbEntity
  8
0
  6
Continuous
 62
     7
370
    25
100
AcDbCircle
 10
135.5877146448
 20
14.1814332617
 30
0.0
 40
7.0
  0
CIRCLE
  5
8B
330
1F
100
AcDbEntity
  8
0
  6
Continuous
 62
     7
370
    25
100
AcDbCircle
 10
201.832447373
 20
174.1103654498
 30
0.0
 40
7.0
  0
CIRCLE
  5
8C
330
1F
100
AcDbEntity
  8
0
  6
Continuous
 62
     7
370
    25
100
AcDbCircle
 10
201.832447373
 20
174.1103654498
 30
0.0
 40
5.000000000000028
  0
LINE
  5
8D
330
1F
100
AcDbEntity
  8
0
  6
Continuous
 62
     7
370
    25
100
AcDbLine
 10
208.9035151849
 20
181.1814332617
 30
0.0
 11
250.2692618843
 21
139.8156865623
 31
0.0
  0
LINE
  5
8E
330
1F
100
AcDbEntity
  8
0
  6
Continuous
 62
     7
370
    25
100
AcDbLine
 10
167.5377684855
 20
222.5471799611
 30
0.0
 11
208.9035151849
 21
181.1814332617
 31
0.0
  0
LINE
  5
8F
330
1F
100
AcDbEntity
  8
0
  6
Continuous
 62
     7
370
    25
100
AcDbLine
 10
135.5877146448
 20
4.1814332617
 30
0.0
 11
194.0877146448
 21
4.1814332617
 31
0.0
  0
LINE
  5
90
330
1F
100
AcDbEntity
  8
0
  6
Continuous
 62
     7
370
    25
100
AcDbLine
 10
77.0877146448
 20
4.1814332617
 30
0.0
 11
135.5877146448
 21
4.1814332617
 31
0.0
  0
LINE
  5
91
330
1F
100
AcDbEntity
  8
0
  6
Continuous
 62
     1
370
    25
100
AcDbLine
 10
153.1613077737
 20
125.4392258504
 30
0.0
 11
194.5270544731
 21
84.073479151
 31
0.0
  0
LINE
  5
92
330
1F
100
AcDbEntity
  8
0
  6
Continuous
 62
     1
370
    25
100
AcDbLine
 10
111.7955610742
 20
166.8049725499
 30
0.0
 11
153.1613077737
 21
125.4392258504
 31
0.0
  0
LINE
  5
93
330
1F
100
AcDbEntity
  8
0
  6
Continuous
 62
     1
370
    25
100
AcDbLine
 10
135.5877146448
 20
83.0128189792
 30
0.0
 11
194.0877146448
 21
83.0128189792
 31
0.0
  0
LINE
  5
94
330
1F
100
AcDbEntity
  8
0
  6
Continuous
 62
     1
370
    25
100
AcDbLine
 10
77.0877146448
 20
83.0128189792
 30
0.0
 11
135.5877146448
 21
83.0128189792
 31
0.0
  0
LINE
  5
95
330
1F
100
AcDbEntity
  8
0
  6
Continuous
 62
     7
370
    25
100
AcDbLine
 10
-161.8615028137
 20
167.1103654498
 30
0.0
 11
-161.8615028137
 21
125.4392258504
 31
0.0
  0
LINE
  5
96
330
1F
100
AcDbEntity
  8
0
  6
Continuous
 62
     7
370
    25
100
AcDbLine
 10
-161.8615028137
 20
181.1814332617
 30
0.0
 11
-161.8615028137
 21
178.9977579919
 31
0.0
  0
LINE
  5
97
330
1F
100
AcDbEntity
  8
0
  6
Continuous
 62
     7
370
    25
100
AcDbLine
 10
-44.8615028137
 20
125.4392258504
 30
0.0
 11
-44.8615028137
 21
181.1814332617
 31
0.0
  0
LINE
  5
98
330
1F
100
AcDbEntity
  8
0
  6
Continuous
 62
     7
370
    25
100
AcDbLine
 10
-161.8615028137
 20
181.1103654498
 30
0.0
 11
-176.8615028137
 21
181.1103654498
 31
0.0
  0
LINE
  5
99
330
1F
100
AcDbEntity
  8
0
  6
Continuous
 62
     7
370
    25
100
AcDbLine
 10
-176.8615028137
 20
167.1103654498
 30
0.0
 11
-161.6507993362
 21
167.1103654498
 31
0.0
  0
LINE
  5
9A
330
1F
100
AcDbEntity
  8
0
  6
Continuous
 62
     7
370
    25
100
AcDbLine
 10
-161.8615028137
 20
125.4392258504
 30
0.0
 11
-161.8615028137
 21
83.0128189792
 31
0.0
  0
LINE
  5
9B
330
1F
100
AcDbEntity
  8
0
  6
Continuous
 62
     7
370
    25
100
AcDbLine
 10
-44.8615028137
 20
83.0128189792
 30
0.0
 11
-44.8615028137
 21
125.4392258504
 31
0.0
  0
LINE
  5
9C
330
1F
100
AcDbEntity
  8
0
  6
Continuous
 62
     7
370
    25
100
AcDbLine
 10
-161.8615028137
 20
7.269701923
 30
0.0
 11
-161.8615028137
 21
4.1814332617
 31
0.0
  0
LINE
  5
9D
330
1F
100
AcDbEntity
  8
0
  6
Continuous
 62
     7
370
    25
100
AcDbLine
 10
-161.8615028137
 20
83.0128189792
 30
0.0
 11
-161.8615028137
 21
21.1808461192
 31
0.0
  0
LINE
  5
9E
330
1F
100
AcDbEntity
  8
0
  6
Continuous
 62
     7
370
    25
100
AcDbLine
 10
-44.8615028137
 20
4.1814332617
 30
0.0
 11
-44.8615028137
 21
83.0128189792
 31
0.0
  0
LINE
  5
9F
330
1F
100
AcDbEntity
  8
0
  6
Continuous
 62
     7
370
    25
100
AcDbLine
 10
-161.8614363469
 20
21.1814332617
 30
0.0
 11
-176.8615028137
 21
21.1814332617
 31
0.0
  0
LINE
  5
A0
330
1F
100
AcDbEntity
  8
0
  6
Continuous
 62
     7
370
    25
100
AcDbLine
 10
-176.8615028137
 20
7.1814332617
 30
0.0
 11
-161.851070549
 21
7.1814332617
 31
0.0
  0
LWPOLYLINE
  5
A1
330
1F
100
AcDbEntity
  8
0
  6
Continuous
 62
     7
370
    25
100
AcDbPolyline
 90
      105
 70
   128
 43
0.0
 10
-161.8615028137
 20
181.1814332617
 10
-161.7547727358
 20
178.6838316312
 10
-161.4349719484
 20
176.1953434782
 10
-160.9032673701
 20
173.7250490262
 10
-160.1615991331
 20
171.2819621116
 10
-159.2126735045
 20
168.8749972936
 10
-158.0599530108
 20
166.5129373259
 10
-156.7076438042
 20
164.2044011091
 10
-155.1606803144
 20
161.9578122416
 10
-153.4247072433
 20
159.7813682824
 10
-151.5060589685
 20
157.6830108395
 10
-149.4117364293
 20
155.6703965918
 10
-147.1493815817
 20
153.7508693502
 10
-144.7272495131
 20
151.9314332617
 10
-142.1541783208
 20
150.218727251
 10
-139.4395568625
 20
148.6190007968
 10
-136.5932904975
 20
147.1380911274
 10
-133.6257649431
 20
145.7814019215
 10
-130.5478083783
 20
144.553883591
 10
-127.3706519327
 20
143.4600152171
 10
-124.1058887057
 20
142.5037882069
 10
-120.7654314642
 20
141.688691729
 10
-117.3614691745
 20
141.0176999822
 10
-113.9064225258
 20
140.4932613424
 10
-110.4128986086
 20
140.1172894295
 10
-106.8936449129
 20
139.8911561241
 10
-103.3615028137
 20
139.8156865623
 10
-99.8293607145
 20
139.8911561241
 10
-96.3101070188
 20
140.1172894295
 10
-92.8165831016
 20
140.4932613424
 10
-89.3615364529
 20
141.0176999822
 10
-85.9575741632
 20
141.688691729
 10
-82.6171169217
 20
142.5037882069
 10
-79.3523536947
 20
143.4600152171
 10
-76.1751972491
 20
144.553883591
 10
-73.0972406843
 20
145.7814019215
 10
-70.1297151299
 20
147.1380911274
 10
-67.2834487649
 20
148.6190007968
 10
-64.5688273066
 20
150.218727251
 10
-61.9957561143
 20
151.9314332617
 10
-59.5736240457
 20
153.7508693502
 10
-57.3112691981
 20
155.6703965918
 10
-55.2169466589
 20
157.6830108395
 10
-53.2982983841
 20
159.7813682824
 10
-51.562325313
 20
161.9578122416
 10
-50.0153618232
 20
164.2044011091
 10
-48.6630526166
 20
166.5129373259
 10
-47.510332123
 20
168.8749972936
 10
-46.5614064943
 20
171.2819621116
 10
-45.8197382573
 20
173.7250490262
 10
-45.288033679
 20
176.1953434782
 10
-44.9682328916
 20
178.6838316312
 10
-44.8615028137
 20
181.1814332617
 10
-44.9682328916
 20
183.6790348921
 10
-45.288033679
 20
186.1675230451
 10
-45.8197382573
 20
188.6378174972
 10
-46.5614064943
 20
191.0809044118
 10
-47.510332123
 20
193.4878692297
 10
-48.6630526166
 20
195.8499291974
 10
-50.0153618232
 20
198.1584654142
 10
-51.562325313
 20
200.4050542818
 10
-53.2982983841
 20
202.581498241
 10
-55.2169466589
 20
204.6798556838
 10
-57.3112691981
 20
206.6924699316
 10
-59.5736240457
 20
208.6119971731
 10
-61.9957561143
 20
210.4314332617
 10
-64.5688273066
 20
212.1441392723
 10
-67.2834487649
 20
213.7438657265
 10
-70.1297151299
 20
215.2247753959
 10
-73.0972406843
 20
216.5814646018
 10
-76.1751972491
 20
217.8089829323
 10
-79.3523536947
 20
218.9028513062
 10
-82.6171169217
 20
219.8590783164
 10
-85.9575741632
 20
220.6741747943
 10
-89.3615364529
 20
221.3451665412
 10
-92.8165831016
 20
221.8696051809
 10
-96.3101070188
 20
222.2455770939
 10
-99.8293607145
 20
222.4717103992
 10
-103.3615028137
 20
222.5471799611
 10
-106.8936449129
 20
222.4717103992
 10
-110.4128986086
 20
222.2455770939
 10
-113.9064225258
 20
221.8696051809
 10
-117.3614691745
 20
221.3451665412
 10
-120.7654314642
 20
220.6741747943
 10
-124.1058887057
 20
219.8590783164
 10
-127.3706519327
 20
218.9028513062
 10
-130.5478083783
 20
217.8089829323
 10
-133.6257649431
 20
216.5814646018
 10
-136.5932904975
 20
215.2247753959
 10
-139.4395568625
 20
213.7438657265
 10
-142.1541783208
 20
212.1441392723
 10
-144.7272495131
 20
210.4314332617
 10
-147.1493815817
 20
208.6119971731
 10
-149.4117364293
 20
206.6924699316
 10
-151.5060589685
 20
204.6798556838
 10
-153.4247072433
 20
202.581498241
 10
-155.1606803144
 20
200.4050542818
 10
-156.7076438042
 20
198.1584654142
 10
-158.0599530108
 20
195.8499291974
 10
-159.2126735045
 20
193.4878692297
 10
-160.1615991331
 20
191.0809044118
 10
-160.9032673701
 20
188.6378174972
 10
-161.4349719484
 20
186.1675230451
 10
-161.7547727358
 20
183.6790348921
 10
-161.8615028137
 20
181.1814332617
  0
LWPOLYLINE
  5
A2
330
1F
100
AcDbEntity
  8
0
  6
Continuous
 62
     7
370
    25
100
AcDbPolyline
 90
       92
 70
   128
 43
0.0
 10
-148.3615028137
 20
181.1814332617
 10
-148.2542800673
 20
183.3767180339
 10
-147.9331227931
 20
185.5615412745
 10
-147.399561452
 20
187.7254913057
 10
-146.6561387067
 20
189.8582559202
 10
-145.706397305
 20
191.9496715233
 10
-144.5548631973
 20
193.9897715673
 10
-143.2070239681
 20
195.9688340464
 10
-141.669302685
 20
197.8774278265
 10
-139.9490272902
 20
199.7064575893
 10
-138.0543956795
 20
201.4472071749
 10
-135.9944366352
 20
203.0913811188
 10
-133.7789668002
 20
204.6311441834
 10
-131.4185438974
 20
206.0591586966
 10
-128.9244164166
 20
207.3686195188
 10
-126.3084700113
 20
208.5532864729
 10
-123.5831708572
 20
209.6075140814
 10
-120.7615062461
 20
210.5262784696
 10
-117.8569226946
 20
211.3052013068
 10
-114.8832618663
 20
211.940570671
 10
-111.8546946091
 20
212.4293587378
 10
-108.7856534252
 20
212.7692362095
 10
-105.6907636935
 20
212.9585834152
 10
-102.584773973
 20
212.9964980291
 10
-99.4824857191
 20
212.8827993709
 10
-96.3986827481
 20
212.6180292664
 10
-93.3480607857
 20
212.2034494659
 10
-90.3451574346
 20
211.6410356308
 10
-87.4042828968
 20
210.9334679192
 10
-84.5394517788
 20
210.0841182134
 10
-81.7643163055
 20
209.0970340516
 10
-79.0921012612
 20
207.9769193394
 10
-76.5355409676
 20
206.7291119334
 10
-74.1068185986
 20
205.3595582042
 10
-71.8175081224
 20
203.874784699
 10
-69.678519146
 20
202.2818670397
 10
-67.7000449259
 20
200.5883962043
 10
-65.8915137928
 20
198.8024423527
 10
-64.2615442211
 20
196.9325163682
 10
-62.8179037581
 20
194.9875292996
 10
-61.5674720081
 20
192.9767498962
 10
-60.5162078477
 20
190.9097604374
 10
-59.6691210295
 20
188.7964110695
 10
-59.0302483079
 20
186.6467728644
 10
-58.6026342024
 20
184.4710898272
 10
-58.3883164889
 20
182.2797300783
 10
-58.3883164889
 20
180.083136445
 10
-58.6026342024
 20
177.8917766962
 10
-59.0302483079
 20
175.716093659
 10
-59.6691210295
 20
173.5664554539
 10
-60.5162078477
 20
171.4531060859
 10
-61.5674720081
 20
169.3861166271
 10
-62.8179037581
 20
167.3753372237
 10
-64.2615442211
 20
165.4303501552
 10
-65.8915137928
 20
163.5604241706
 10
-67.7000449259
 20
161.774470319
 10
-69.678519146
 20
160.0809994836
 10
-71.8175081224
 20
158.4880818243
 10
-74.1068185986
 20
157.0033083191
 10
-76.5355409676
 20
155.6337545899
 10
-79.0921012612
 20
154.3859471839
 10
-81.7643163055
 20
153.2658324717
 10
-84.5394517788
 20
152.2787483099
 10
-87.4042828968
 20
151.4293986042
 10
-90.3451574346
 20
150.7218308925
 10
-93.3480607857
 20
150.1594170574
 10
-96.3986827481
 20
149.7448372569
 10
-99.4824857191
 20
149.4800671525
 10
-102.584773973
 20
149.3663684943
 10
-105.6907636935
 20
149.4042831082
 10
-108.7856534252
 20
149.5936303138
 10
-111.8546946091
 20
149.9335077855
 10
-114.8832618663
 20
150.4222958523
 10
-117.8569226946
 20
151.0576652165
 10
-120.7615062461
 20
151.8365880537
 10
-123.5831708572
 20
152.755352442
 10
-126.3084700113
 20
153.8095800504
 10
-128.9244164166
 20
154.9942470045
 10
-131.4185438974
 20
156.3037078267
 10
-133.7789668002
 20
157.7317223399
 10
-135.9944366352
 20
159.2714854045
 10
-138.0543956795
 20
160.9156593484
 10
-139.9490272902
 20
162.656408934
 10
-141.669302685
 20
164.4854386968
 10
-143.2070239681
 20
166.394032477
 10
-144.5548631974
 20
168.373094956
 10
-145.706397305
 20
170.413195
 10
-146.6561387067
 20
172.5046106031
 10
-147.399561452
 20
174.6373752176
 10
-147.9331227931
 20
176.8013252488
 10
-148.2542800673
 20
178.9861484894
 10
-148.3615028137
 20
181.1814332617
  0
SPLINE
  5
A3
330
1F
100
AcDbEntity
  8
0
  6
Continuous
 62
     7
370
    25
100
AcDbSpline
210
0.0
220
0.0
230
1.0
 70
     8
 71
     3
 72
    15
 73
    11
 74
     0
 42
0.00000001
 43
0.00000001
 40
0.0
 40
0.0
 40
0.0
 40
0.0
 40
0.0469550568057216
 40
0.190514054003723
 40
0.3337103492137853
 40
0.4760024553250236
 40
0.6182644930653495
 40
0.7614111141275673
 40
0.9049832718905513
 40
1.0
 40
1.0
 40
1.0
 40
1.0
 10
-161.6507993362094
 20
167.1973542975784
 30
0.0
 10
-161.6356220634395
 20
167.1732724504556
 30
0.0
 10
-161.5740422473173
 20
167.0755634786134
 30
0.0
 10
-161.4740076956341
 20
167.7158051913093
 30
0.0
 10
-161.4247540814911
 20
169.0584093194698
 30
0.0
 10
-161.4741498190583
 20
171.0157046823155
 30
0.0
 10
-161.6014007974705
 20
173.3058447709503
 30
0.0
 10
-161.7472031696236
 20
175.6749165025989
 30
0.0
 10
-161.8510410951207
 20
177.6982028505302
 30
0.0
 10
-161.8510467173761
 20
178.6276568447161
 30
0.0
 10
-161.8510489564087
 20
178.9978068503748
 30
0.0
  0
LINE
  5
A4
330
1F
100
AcDbEntity
  8
0
  6
Continuous
 62
     7
370
    25
100
AcDbLine
 10
-176.8615028137
 20
181.1103654498
 30
0.0
 11
-176.8615028137
 21
167.1103654498
 31
0.0
  0
LINE
  5
A5
330
1F
100
AcDbEntity
  8
0
  6
Continuous
 62
     7
370
    25
100
AcDbLine
 10
-161.8615028137
 20
4.1814332617
 30
0.0
 11
-44.8615028137
 21
4.1814332617
 31
0.0
  0
SPLINE
  5
A6
330
1F
100
AcDbEntity
  8
0
  6
Continuous
 62
     7
370
    25
100
AcDbSpline
210
0.0
220
0.0
230
1.0
 70
     8
 71
     3
 72
    18
 73
    14
 74
     0
 42
0.00000001
 43
0.00000001
 40
0.0
 40
0.0
 40
0.0
 40
0.0
 40
0.0359494405323699
 40
0.142515033225219
 40
0.2493506639366213
 40
0.3568531745431215
 40
0.4643878944203369
 40
0.5712569129564504
 40
0.6778046100069852
 40
0.7848726690753602
 40
0.8924931218417976
 40
0.9998391912327634
 40
1.0
 40
1.0
 40
1.0
 40
1.0
 10
-161.8510386287259
 20
7.269701923029115
 30
0.0
 10
-161.8539324959166
 20
7.245258982947971
 30
0.0
 10
-161.8654047072427
 20
7.148359382670479
 30
0.0
 10
-161.789116571379
 20
7.786751206617717
 30
0.0
 10
-161.6536715221339
 20
9.119572613984703
 30
0.0
 10
-161.5104685523896
 20
11.07885187095174
 30
0.0
 10
-161.4304006619583
 20
13.37643322604551
 30
0.0
 10
-161.4472397228925
 20
15.76424146013711
 30
0.0
 10
-161.5521791180634
 20
17.96092434685941
 30
0.0
 10
-161.7030415157869
 20
19.76458117907793
 30
0.0
 10
-161.8211982475982
 20
20.85053249435724
 30
0.0
 10
-161.8766836146596
 20
21.31187228913582
 30
0.0
 10
-161.8614572554421
 20
21.18104181534943
 30
0.0
 10
-161.861434479857
 20
21.18084611915244
 30
0.0
  0
LINE
  5
A7
330
1F
100
AcDbEntity
  8
0
  6
Continuous
 62
     7
370
    25
100
AcDbLine
 10
-176.8615028137
 20
21.1814332617
 30
0.0
 11
-176.8615028137
 21
7.1814332617
 31
0.0
  0
LWPOLYLINE
  5
A8
330
1F
100
AcDbEntity
  8
0
  6
Continuous
 62
     1
370
    25
100
AcDbPolyline
 90
       54
 70
   128
 43
0.0
 10
-161.8615028137
 20
125.4392258504
 10
-161.7547727358
 20
122.94162422
 10
-161.4349719484
 20
120.453136067
 10
-160.9032673701
 20
117.9828416149
 10
-160.1615991331
 20
115.5397547003
 10
-159.2126735045
 20
113.1327898824
 10
-158.0599530108
 20
110.7707299147
 10
-156.7076438042
 20
108.4621936979
 10
-155.1606803144
 20
106.2156048303
 10
-153.4247072433
 20
104.0391608711
 10
-151.5060589685
 20
101.9408034283
 10
-149.4117364293
 20
99.9281891805
 10
-147.1493815817
 20
98.008661939
 10
-144.7272495131
 20
96.1892258504
 10
-142.1541783208
 20
94.4765198398
 10
-139.4395568625
 20
92.8767933856
 10
-136.5932904975
 20
91.3958837162
 10
-133.6257649431
 20
90.0391945103
 10
-130.5478083783
 20
88.8116761798
 10
-127.3706519327
 20
87.7178078059
 10
-124.1058887057
 20
86.7615807957
 10
-120.7654314642
 20
85.9464843178
 10
-117.3614691745
 20
85.2754925709
 10
-113.9064225258
 20
84.7510539312
 10
-110.4128986086
 20
84.3750820182
 10
-106.8936449129
 20
84.1489487129
 10
-103.3615028137
 20
84.073479151
 10
-99.8293607145
 20
84.1489487129
 10
-96.3101070188
 20
84.3750820182
 10
-92.8165831016
 20
84.7510539312
 10
-89.3615364529
 20
85.2754925709
 10
-85.9575741632
 20
85.9464843178
 10
-82.6171169217
 20
86.7615807957
 10
-79.3523536947
 20
87.7178078059
 10
-76.1751972491
 20
88.8116761798
 10
-73.0972406843
 20
90.0391945103
 10
-70.1297151299
 20
91.3958837162
 10
-67.2834487649
 20
92.8767933856
 10
-64.5688273066
 20
94.4765198398
 10
-61.9957561143
 20
96.1892258504
 10
-59.5736240457
 20
98.008661939
 10
-57.3112691981
 20
99.9281891805
 10
-55.2169466589
 20
101.9408034283
 10
-53.2982983841
 20
104.0391608711
 10
-51.562325313
 20
106.2156048303
 10
-50.0153618232
 20
108.4621936979
 10
-48.6630526166
 20
110.7707299147
 10
-47.510332123
 20
113.1327898824
 10
-46.5614064943
 20
115.5397547003
 10
-45.8197382573
 20
117.9828416149
 10
-45.288033679
 20
120.453136067
 10
-44.9682328916
 20
122.94162422
 10
-44.8615028137
 20
125.4392258504
 10
-44.8615028137
 20
125.4392258504
  0
ARC
  5
A9
330
1F
100
AcDbEntity
  8
0
  6
Continuous
 62
     1
370
    25
100
AcDbCircle
 10
-103.3615028137
 20
95.9980399067
 30
0.0
 40
61.28704350283627
100
AcDbArc
 50
69.2516291357
 51
110.7483708643
  0
LINE
  5
AA
330
1F
100
AcDbEntity
  8
0
  6
Continuous
 62
     1
370
    25
100
AcDbLine
 10
-161.8615028137
 20
83.0128189792
 30
0.0
 11
-44.8615028137
 21
83.0128189792
 31
0.0
  0
INSERT
  5
B6
330
1F
100
AcDbEntity
  8
FORMAT
 62
     7
100
AcDbBlockReference
  2
SW_CENTERMARKSYMBOL_0
 10
-103.3615028137
 20
113.1814332617
 30
0.0
  0
LINE
  5
B7
330
1F
100
AcDbEntity
  8
0
  6
Continuous
 62
     7
370
    25
100
AcDbLine
 10
142.5877146448
 20
387.616166153
 30
0.0
 11
142.5877146448
 21
403.0260265539
 31
0.0
  0
LINE
  5
B8
330
1F
100
AcDbEntity
  8
0
  6
Continuous
 62
     7
370
    25
100
AcDbLine
 10
128.5877146448
 20
403.0260265539
 30
0.0
 11
128.5877146448
 21
387.6057131921
 31
0.0
  0
LINE
  5
B9
330
1F
100
AcDbEntity
  8
0
  6
Continuous
 62
     7
370
    25
100
AcDbLine
 10
153.1613077737
 20
388.0260265539
 30
0.0
 11
142.5877146448
 21
388.0260265539
 31
0.0
  0
LINE
  5
BA
330
1F
100
AcDbEntity
  8
0
  6
Continuous
 62
     7
370
    25
100
AcDbLine
 10
135.5877146448
 20
271.0260265539
 30
0.0
 11
153.1613077737
 21
271.0260265539
 31
0.0
  0
LINE
  5
BB
330
1F
100
AcDbEntity
  8
0
  6
Continuous
 62
     7
370
    25
100
AcDbLine
 10
196.9444235299
 20
388.0260265539
 30
0.0
 11
153.1613077737
 21
388.0260265539
 31
0.0
  0
LINE
  5
BC
330
1F
100
AcDbEntity
  8
0
  6
Continuous
 62
     7
370
    25
100
AcDbLine
 10
208.9035151849
 20
388.0260265539
 30
0.0
 11
208.832447373
 21
388.0260265539
 31
0.0
  0
LINE
  5
BD
330
1F
100
AcDbEntity
  8
0
  6
Continuous
 62
     7
370
    25
100
AcDbLine
 10
153.1613077737
 20
271.0260265539
 30
0.0
 11
208.9035151849
 21
271.0260265539
 31
0.0
  0
LINE
  5
BE
330
1F
100
AcDbEntity
  8
0
  6
Continuous
 62
     7
370
    25
100
AcDbLine
 10
208.832447373
 20
387.8153535001
 30
0.0
 11
208.832447373
 21
403.0260265539
 31
0.0
  0
LINE
  5
BF
330
1F
100
AcDbEntity
  8
0
  6
Continuous
 62
     7
370
    25
100
AcDbLine
 10
194.832447373
 20
403.0260265539
 30
0.0
 11
194.832447373
 21
388.0260265539
 31
0.0
  0
CIRCLE
  5
C0
330
1F
100
AcDbEntity
  8
0
  6
Continuous
 62
     7
370
    25
100
AcDbCircle
 10
135.5877146448
 20
329.5260265539
 30
0.0
 40
45.0
  0
CIRCLE
  5
C1
330
1F
100
AcDbEntity
  8
0
  6
Continuous
 62
     7
370
    25
100
AcDbCircle
 10
135.5877146448
 20
329.5260265539
 30
0.0
 40
58.5
  0
LINE
  5
C2
330
1F
100
AcDbEntity
  8
0
  6
Continuous
 62
     7
370
    25
100
AcDbLine
 10
142.5877146448
 20
403.0260265539
 30
0.0
 11
128.5877146448
 21
403.0260265539
 31
0.0
  0
LWPOLYLINE
  5
C3
330
1F
100
AcDbEntity
  8
0
  6
Continuous
 62
     7
370
    25
100
AcDbPolyline
 90
       54
 70
   128
 43
0.0
 10
208.9035151849
 20
388.0260265539
 10
211.4011168153
 20
387.9192964759
 10
213.8896049683
 20
387.5994956886
 10
216.3598994204
 20
387.0677911103
 10
218.802986335
 20
386.3261228733
 10
221.209951153
 20
385.3771972446
 10
223.5720111207
 20
384.2244767509
 10
225.8805473374
 20
382.8721675444
 10
228.127136205
 20
381.3252040546
 10
230.3035801642
 20
379.5892309835
 10
232.401937607
 20
377.6705827086
 10
234.4145518548
 20
375.5762601695
 10
236.3340790963
 20
373.3139053219
 10
238.1535151849
 20
370.8917732533
 10
239.8662211955
 20
368.3187020609
 10
241.4659476497
 20
365.6040806026
 10
242.9468573191
 20
362.7578142376
 10
244.303546525
 20
359.7902886832
 10
245.5310648555
 20
356.7123321184
 10
246.6249332294
 20
353.5351756728
 10
247.5811602396
 20
350.2704124458
 10
248.3962567175
 20
346.9299552044
 10
249.0672484644
 20
343.5259929147
 10
249.5916871042
 20
340.070946266
 10
249.9676590171
 20
336.5774223488
 10
250.1937923224
 20
333.0581686531
 10
250.2692618843
 20
329.5260265539
 10
250.1937923224
 20
325.9938844546
 10
249.9676590171
 20
322.4746307589
 10
249.5916871042
 20
318.9811068417
 10
249.0672484644
 20
315.526060193
 10
248.3962567175
 20
312.1220979033
 10
247.5811602396
 20
308.7816406619
 10
246.6249332294
 20
305.5168774349
 10
245.5310648555
 20
302.3397209893
 10
244.303546525
 20
299.2617644245
 10
242.9468573191
 20
296.2942388701
 10
241.4659476497
 20
293.4479725051
 10
239.8662211955
 20
290.7333510468
 10
238.1535151849
 20
288.1602798544
 10
236.3340790963
 20
285.7381477858
 10
234.4145518548
 20
283.4757929382
 10
232.401937607
 20
281.3814703991
 10
230.3035801642
 20
279.4628221242
 10
228.127136205
 20
277.7268490531
 10
225.8805473374
 20
276.1798855633
 10
223.5720111207
 20
274.8275763568
 10
221.209951153
 20
273.6748558631
 10
218.802986335
 20
272.7259302344
 10
216.3598994204
 20
271.9842619974
 10
213.8896049683
 20
271.4525574191
 10
211.4011168153
 20
271.1327566318
 10
208.9035151849
 20
271.0260265539
 10
208.9035151849
 20
271.0260265539
  0
SPLINE
  5
C4
330
1F
100
AcDbEntity
  8
0
  6
Continuous
 62
     7
370
    25
100
AcDbSpline
210
0.0
220
0.0
230
1.0
 70
     8
 71
     3
 72
    15
 73
    11
 74
     0
 42
0.00000001
 43
0.00000001
 40
0.0
 40
0.0
 40
0.0
 40
0.0
 40
0.0953332872283918
 40
0.2374735316245186
 40
0.3802964506602178
 40
0.5238526460869799
 40
0.6670461466044817
 40
0.8093354756697789
 40
0.9515947369509935
 40
0.9999999999999999
 40
0.9999999999999999
 40
0.9999999999999999
 40
0.9999999999999999
 10
196.9443741897728
 20
388.0156791900647
 30
0.0
 10
197.3161453843014
 20
388.0156122939927
 30
0.0
 10
198.2422208516192
 20
388.015445657061
 30
0.0
 10
200.2555515664322
 20
387.9124191132092
 30
0.0
 10
202.6216724940668
 20
387.7668899763578
 30
0.0
 10
204.9239787425662
 20
387.638636358823
 30
0.0
 10
206.8865499428817
 20
387.5892726783346
 30
0.0
 10
208.2239503265812
 20
387.6385906944058
 30
0.0
 10
208.8637506773341
 20
387.7379814743937
 30
0.0
 10
208.7681007234653
 20
387.7996877261293
 30
0.0
 10
208.7438174374481
 20
387.8153535001244
 30
0.0
  0
ARC
  5
C5
330
1F
100
AcDbEntity
  8
0
  6
Continuous
 62
     7
370
    25
100
AcDbCircle
 10
239.7685490528
 20
329.5260265539
 30
0.0
 40
62.69014264670675
100
AcDbArc
 50
167.6243191913
 51
192.3756808087
  0
LINE
  5
C6
330
1F
100
AcDbEntity
  8
0
  6
Continuous
 62
     7
370
    25
100
AcDbLine
 10
208.832447373
 20
403.0260265539
 30
0.0
 11
194.832447373
 21
403.0260265539
 31
0.0
  0
LWPOLYLINE
  5
C7
330
1F
100
AcDbEntity
  8
0
  6
Continuous
 62
     1
370
    25
100
AcDbPolyline
 90
       54
 70
   128
 43
0.0
 10
153.1613077737
 20
388.0260265539
 10
155.6589094041
 20
387.9192964759
 10
158.1473975571
 20
387.5994956886
 10
160.6176920092
 20
387.0677911103
 10
163.0607789238
 20
386.3261228733
 10
165.4677437417
 20
385.3771972446
 10
167.8298037094
 20
384.2244767509
 10
170.1383399262
 20
382.8721675444
 10
172.3849287938
 20
381.3252040546
 10
174.561372753
 20
379.5892309835
 10
176.6597301958
 20
377.6705827086
 10
178.6723444436
 20
375.5762601695
 10
180.5918716851
 20
373.3139053219
 10
182.4113077737
 20
370.8917732533
 10
184.1240137843
 20
368.3187020609
 10
185.7237402385
 20
365.6040806026
 10
187.2046499079
 20
362.7578142376
 10
188.5613391138
 20
359.7902886832
 10
189.7888574443
 20
356.7123321184
 10
190.8827258182
 20
353.5351756728
 10
191.8389528284
 20
350.2704124458
 10
192.6540493063
 20
346.9299552044
 10
193.3250410532
 20
343.5259929147
 10
193.8494796929
 20
340.070946266
 10
194.2254516059
 20
336.5774223488
 10
194.4515849112
 20
333.0581686531
 10
194.5270544731
 20
329.5260265539
 10
194.4515849112
 20
325.9938844546
 10
194.2254516059
 20
322.4746307589
 10
193.8494796929
 20
318.9811068417
 10
193.3250410532
 20
315.526060193
 10
192.6540493063
 20
312.1220979033
 10
191.8389528284
 20
308.7816406619
 10
190.8827258182
 20
305.5168774349
 10
189.7888574443
 20
302.3397209893
 10
188.5613391138
 20
299.2617644245
 10
187.2046499079
 20
296.2942388701
 10
185.7237402385
 20
293.4479725051
 10
184.1240137843
 20
290.7333510468
 10
182.4113077737
 20
288.1602798544
 10
180.5918716851
 20
285.7381477858
 10
178.6723444436
 20
283.4757929382
 10
176.6597301958
 20
281.3814703991
 10
174.561372753
 20
279.4628221242
 10
172.3849287938
 20
277.7268490531
 10
170.1383399262
 20
276.1798855633
 10
167.8298037094
 20
274.8275763568
 10
165.4677437417
 20
273.6748558631
 10
163.0607789238
 20
272.7259302344
 10
160.6176920092
 20
271.9842619974
 10
158.1473975571
 20
271.4525574191
 10
155.6589094041
 20
271.1327566318
 10
153.1613077737
 20
271.0260265539
 10
153.1613077737
 20
271.0260265539
  0
LWPOLYLINE
  5
C8
330
1F
100
AcDbEntity
  8
0
  6
Continuous
 62
     1
370
    25
100
AcDbPolyline
 90
       41
 70
   128
 43
0.0
 10
145.8820871601
 20
373.3327143369
 10
144.4844851151
 20
372.8206624468
 10
142.393069512
 20
371.8709210452
 10
140.352969468
 20
370.7193869375
 10
138.373906989
 20
369.3715477082
 10
136.4653132088
 20
367.8338264251
 10
134.636283446
 20
366.1135510304
 10
132.8955338604
 20
364.2189194196
 10
131.2513599165
 20
362.1589603753
 10
129.7115968519
 20
359.9434905404
 10
128.2835823387
 20
357.5830676375
 10
126.9741215165
 20
355.0889401568
 10
125.7894545624
 20
352.4729937514
 10
124.7352269539
 20
349.7476945974
 10
123.8164625657
 20
346.9260299862
 10
123.0375397285
 20
344.0214464348
 10
122.4021703643
 20
341.0477856064
 10
121.9133822975
 20
338.0192183492
 10
121.5735048258
 20
334.9501771653
 10
121.3841576202
 20
331.8552874336
 10
121.3462430063
 20
328.7492977131
 10
121.4599416645
 20
325.6470094592
 10
121.7247117689
 20
322.5632064883
 10
122.1392915694
 20
319.5125845258
 10
122.7017054045
 20
316.5096811747
 10
123.4092731161
 20
313.5688066369
 10
124.2586228219
 20
310.703975519
 10
125.2457069837
 20
307.9288400457
 10
126.3658216959
 20
305.2566250014
 10
127.6136291019
 20
302.7000647077
 10
128.9831828311
 20
300.2713423388
 10
130.4679563363
 20
297.9820318626
 10
132.0608739956
 20
295.8430428862
 10
133.754344831
 20
293.8645686661
 10
135.5402986826
 20
292.0560375329
 10
137.4102246672
 20
290.4260679612
 10
139.3552117357
 20
288.9824274982
 10
141.3659911391
 20
287.7319957482
 10
143.4329805979
 20
286.6807315879
 10
145.5463299659
 20
285.8336447697
 10
145.8820871601
 20
285.7193387708
  0
INSERT
  5
D4
330
1F
100
AcDbEntity
  8
FORMAT
 62
     7
100
AcDbBlockReference
  2
SW_CENTERMARKSYMBOL_1
 10
135.5877146448
 20
329.5260265539
 30
0.0
  0
LINE
  5
D5
330
1F
100
AcDbEntity
  8
0
  6
Continuous
 62
     7
370
    25
100
AcDbLine
 10
324.5569735771
 20
83.0128189792
 30
0.0
 11
324.5569735771
 21
4.1814332617
 31
0.0
  0
LINE
  5
D6
330
1F
100
AcDbEntity
  8
0
  6
Continuous
 62
     7
370
    25
100
AcDbLine
 10
441.5569735771
 20
21.1808461192
 30
0.0
 11
441.5569735771
 21
83.0128189792
 31
0.0
  0
LINE
  5
D7
330
1F
100
AcDbEntity
  8
0
  6
Continuous
 62
     7
370
    25
100
AcDbLine
 10
441.5569735771
 20
4.1814332617
 30
0.0
 11
441.5569735771
 21
7.269701923
 31
0.0
  0
LINE
  5
D8
330
1F
100
AcDbEntity
  8
0
  6
Continuous
 62
     7
370
    25
100
AcDbLine
 10
441.5569735771
 20
83.0128189792
 30
0.0
 11
441.5569735771
 21
125.4392258504
 31
0.0
  0
LINE
  5
D9
330
1F
100
AcDbEntity
  8
0
  6
Continuous
 62
     7
370
    25
100
AcDbLine
 10
324.5569735771
 20
125.4392258504
 30
0.0
 11
324.5569735771
 21
83.0128189792
 31
0.0
  0
LINE
  5
DA
330
1F
100
AcDbEntity
  8
0
  6
Continuous
 62
     7
370
    25
100
AcDbLine
 10
324.5569735771
 20
181.1814332617
 30
0.0
 11
324.5569735771
 21
125.4392258504
 31
0.0
  0
LINE
  5
DB
330
1F
100
AcDbEntity
  8
0
  6
Continuous
 62
     7
370
    25
100
AcDbLine
 10
441.5569735771
 20
181.1103654498
 30
0.0
 11
441.5569735771
 21
181.1814332617
 31
0.0
  0
LINE
  5
DC
330
1F
100
AcDbEntity
  8
0
  6
Continuous
 62
     7
370
    25
100
AcDbLine
 10
441.5569735771
 20
125.4392258504
 30
0.0
 11
441.5569735771
 21
169.2223416067
 31
0.0
  0
LINE
  5
DD
330
1F
100
AcDbEntity
  8
0
  6
Continuous
 62
     7
370
    25
100
AcDbLine
 10
441.5569735771
 20
7.1814332617
 30
0.0
 11
456.5569735771
 21
7.1814332617
 31
0.0
  0
LINE
  5
DE
330
1F
100
AcDbEntity
  8
0
  6
Continuous
 62
     7
370
    25
100
AcDbLine
 10
456.5569735771
 20
21.1814332617
 30
0.0
 11
441.5569071103
 21
21.1814332617
 31
0.0
  0
LINE
  5
DF
330
1F
100
AcDbEntity
  8
0
  6
Continuous
 62
     7
370
    25
100
AcDbLine
 10
441.5569735771
 20
167.1103654498
 30
0.0
 11
456.5569735771
 21
167.1103654498
 31
0.0
  0
LINE
  5
E0
330
1F
100
AcDbEntity
  8
0
  6
Continuous
 62
     7
370
    25
100
AcDbLine
 10
456.5569735771
 20
181.1103654498
 30
0.0
 11
441.347284362
 21
181.1103654498
 31
0.0
  0
LINE
  5
E1
330
1F
100
AcDbEntity
  8
0
  6
Continuous
 62
     7
370
    25
100
AcDbLine
 10
324.5569735771
 20
4.1814332617
 30
0.0
 11
441.5569735771
 21
4.1814332617
 31
0.0
  0
SPLINE
  5
E2
330
1F
100
AcDbEntity
  8
0
  6
Continuous
 62
     7
370
    25
100
AcDbSpline
210
0.0
220
0.0
230
1.0
 70
     8
 71
     3
 72
    12
 73
     8
 74
     0
 42
0.00000001
 43
0.00000001
 40
0.0
 40
0.0
 40
0.0
 40
0.0
 40
0.2137905539546676
 40
0.4275439041672586
 40
0.6422615648239981
 40
0.8576176998450856
 40
1.0
 40
1.0
 40
1.0
 40
1.0
 10
441.1366602153714
 20
14.18143326167113
 30
0.0
 10
441.1461363525219
 20
13.39786903595545
 30
0.0
 10
441.1650869777895
 20
11.83087694004033
 30
0.0
 10
441.2980715348489
 20
9.735667503366459
 30
0.0
 10
441.4424413183822
 20
8.164636014538276
 30
0.0
 10
441.5465937609414
 20
7.267202586603176
 30
0.0
 10
441.5465334115706
 20
7.268990372309394
 30
0.0
 10
441.5465093921156
 20
7.26970192302915
 30
0.0
  0
SPLINE
  5
E3
330
1F
100
AcDbEntity
  8
0
  6
Continuous
 62
     7
370
    25
100
AcDbSpline
210
0.0
220
0.0
230
1.0
 70
     8
 71
     3
 72
    12
 73
     8
 74
     0
 42
0.00000001
 43
0.00000001
 40
0.0
 40
0.0
 40
0.0
 40
0.0
 40
0.2129872288724841
 40
0.4262443317808238
 40
0.6408032491321243
 40
0.8560173836126964
 40
1.0
 40
1.0
 40
1.0
 40
1.0
 10
441.5569052432468
 20
21.18084611915238
 30
0.0
 10
441.5475627395224
 20
21.10474531387132
 30
0.0
 10
441.5288658942785
 20
20.95244727672268
 30
0.0
 10
441.3973900682524
 20
19.75986048895691
 30
0.0
 10
441.2511746586934
 20
17.99691777449215
 30
0.0
 10
441.1516324717011
 20
16.02190564567531
 30
0.0
 10
441.140944462262
 20
14.70807653538691
 30
0.0
 10
441.1366602153714
 20
14.18143326167113
 30
0.0
  0
LWPOLYLINE
  5
E4
330
1F
100
AcDbEntity
  8
0
  6
Continuous
 62
     7
370
    25
100
AcDbPolyline
 90
       53
 70
   128
 43
0.0
 10
324.5569735771
 20
181.1814332617
 10
324.663703655
 20
183.6790348921
 10
324.9835044424
 20
186.1675230451
 10
325.5152090207
 20
188.6378174972
 10
326.2568772577
 20
191.0809044118
 10
327.2058028863
 20
193.4878692297
 10
328.35852338
 20
195.8499291974
 10
329.7108325866
 20
198.1584654142
 10
331.2577960764
 20
200.4050542818
 10
332.9937691475
 20
202.581498241
 10
334.9124174223
 20
204.6798556838
 10
337.0067399615
 20
206.6924699316
 10
339.2690948091
 20
208.6119971731
 10
341.6912268777
 20
210.4314332617
 10
344.26429807
 20
212.1441392723
 10
346.9789195283
 20
213.7438657265
 10
349.8251858933
 20
215.2247753959
 10
352.7927114477
 20
216.5814646018
 10
355.8706680125
 20
217.8089829323
 10
359.0478244581
 20
218.9028513062
 10
362.3125876851
 20
219.8590783164
 10
365.6530449266
 20
220.6741747943
 10
369.0570072163
 20
221.3451665412
 10
372.512053865
 20
221.8696051809
 10
376.0055777822
 20
222.2455770939
 10
379.5248314779
 20
222.4717103992
 10
383.0569735771
 20
222.5471799611
 10
386.5891156763
 20
222.4717103992
 10
390.108369372
 20
222.2455770939
 10
393.6018932892
 20
221.8696051809
 10
397.0569399379
 20
221.3451665412
 10
400.4609022276
 20
220.6741747943
 10
403.8013594691
 20
219.8590783164
 10
407.0661226961
 20
218.9028513062
 10
410.2432791417
 20
217.8089829323
 10
413.3212357065
 20
216.5814646018
 10
416.2887612609
 20
215.2247753959
 10
419.1350276259
 20
213.7438657265
 10
421.8496490842
 20
212.1441392723
 10
424.4227202765
 20
210.4314332617
 10
426.8448523451
 20
208.6119971731
 10
429.1072071927
 20
206.6924699316
 10
431.2015297319
 20
204.6798556838
 10
433.1201780067
 20
202.581498241
 10
434.8561510778
 20
200.4050542818
 10
436.4031145676
 20
198.1584654142
 10
437.7554237742
 20
195.8499291974
 10
438.9081442678
 20
193.4878692297
 10
439.8570698965
 20
191.0809044118
 10
440.5987381335
 20
188.6378174972
 10
441.1304427118
 20
186.1675230451
 10
441.4502434992
 20
183.6790348921
 10
441.5569735771
 20
181.1814332617
  0
SPLINE
  5
E5
330
1F
100
AcDbEntity
  8
0
  6
Continuous
 62
     7
370
    25
100
AcDbSpline
210
0.0
220
0.0
230
1.0
 70
     8
 71
     3
 72
    10
 73
     6
 74
     0
 42
0.00000001
 43
0.00000001
 40
0.0
 40
0.0
 40
0.0
 40
0.0
 40
0.4291940314968206
 40
0.8584625369810518
 40
1.0
 40
1.0
 40
1.0
 40
1.0
 10
441.3471957417118
 20
174.1103654498056
 30
0.0
 10
441.3930625732697
 20
173.3319006661578
 30
0.0
 10
441.4848041952238
 20
171.7748360192195
 30
0.0
 10
441.5610704724659
 20
170.0560717439353
 30
0.0
 10
441.5494961826347
 20
169.3880372626571
 30
0.0
 10
441.5466262133118
 20
169.2223909469094
 30
0.0
  0
SPLINE
  5
E6
330
1F
100
AcDbEntity
  8
0
  6
Continuous
 62
     7
370
    25
100
AcDbSpline
210
0.0
220
0.0
230
1.0
 70
     8
 71
     3
 72
    12
 73
     8
 74
     0
 42
0.00000001
 43
0.00000001
 40
0.0
 40
0.0
 40
0.0
 40
0.0
 40
0.2132936563476072
 40
0.4283128422175047
 40
0.6420012671828877
 40
0.8550461116004088
 40
0.9999999999999999
 40
0.9999999999999999
 40
0.9999999999999999
 40
0.9999999999999999
 10
441.3472843620194
 20
181.1073378427122
 30
0.0
 10
441.3003459069396
 20
181.0324196945542
 30
0.0
 10
441.2060892682339
 20
180.8819773160948
 30
0.0
 10
441.1258642719014
 20
179.6823144320713
 30
0.0
 10
441.1425115619635
 20
177.914530761857
 30
0.0
 10
441.2368061517189
 20
175.9466993414063
 30
0.0
 10
441.3153808159448
 20
174.6396076224451
 30
0.0
 10
441.3471957417118
 20
174.1103654498056
 30
0.0
  0
LINE
  5
E7
330
1F
100
AcDbEntity
  8
0
  6
Continuous
 62
     7
370
    25
100
AcDbLine
 10
456.5569735771
 20
14.1814332617
 30
0.0
 11
456.5569735771
 21
21.1814332617
 31
0.0
  0
LINE
  5
E8
330
1F
100
AcDbEntity
  8
0
  6
Continuous
 62
     7
370
    25
100
AcDbLine
 10
456.5569735771
 20
7.1814332617
 30
0.0
 11
456.5569735771
 21
14.1814332617
 31
0.0
  0
LINE
  5
E9
330
1F
100
AcDbEntity
  8
0
  6
Continuous
 62
     7
370
    25
100
AcDbLine
 10
456.5569735771
 20
174.1103654498
 30
0.0
 11
456.5569735771
 21
181.1103654498
 31
0.0
  0
LINE
  5
EA
330
1F
100
AcDbEntity
  8
0
  6
Continuous
 62
     7
370
    25
100
AcDbLine
 10
456.5569735771
 20
167.1103654498
 30
0.0
 11
456.5569735771
 21
174.1103654498
 31
0.0
  0
LINE
  5
EB
330
1F
100
AcDbEntity
  8
0
  6
Continuous
 62
     1
370
    25
100
AcDbLine
 10
324.5569735771
 20
83.0128189792
 30
0.0
 11
441.5569735771
 21
83.0128189792
 31
0.0
  0
LWPOLYLINE
  5
EC
330
1F
100
AcDbEntity
  8
0
  6
Continuous
 62
     1
370
    25
100
AcDbPolyline
 90
       54
 70
   128
 43
0.0
 10
324.5569735771
 20
125.4392258504
 10
324.663703655
 20
127.9368274809
 10
324.9835044424
 20
130.4253156339
 10
325.5152090207
 20
132.8956100859
 10
326.2568772577
 20
135.3386970006
 10
327.2058028863
 20
137.7456618185
 10
328.35852338
 20
140.1077217862
 10
329.7108325866
 20
142.416258003
 10
331.2577960764
 20
144.6628468706
 10
332.9937691475
 20
146.8392908297
 10
334.9124174223
 20
148.9376482726
 10
337.0067399615
 20
150.9502625203
 10
339.2690948091
 20
152.8697897619
 10
341.6912268777
 20
154.6892258504
 10
344.26429807
 20
156.4019318611
 10
346.9789195283
 20
158.0016583153
 10
349.8251858933
 20
159.4825679847
 10
352.7927114477
 20
160.8392571906
 10
355.8706680125
 20
162.0667755211
 10
359.0478244581
 20
163.160643895
 10
362.3125876851
 20
164.1168709052
 10
365.6530449266
 20
164.9319673831
 10
369.0570072163
 20
165.60295913
 10
372.512053865
 20
166.1273977697
 10
376.0055777822
 20
166.5033696826
 10
379.5248314779
 20
166.729502988
 10
383.0569735771
 20
166.8049725499
 10
386.5891156763
 20
166.729502988
 10
390.108369372
 20
166.5033696826
 10
393.6018932892
 20
166.1273977697
 10
397.0569399379
 20
165.60295913
 10
400.4609022276
 20
164.9319673831
 10
403.8013594691
 20
164.1168709052
 10
407.0661226961
 20
163.160643895
 10
410.2432791417
 20
162.0667755211
 10
413.3212357065
 20
160.8392571906
 10
416.2887612609
 20
159.4825679847
 10
419.1350276259
 20
158.0016583153
 10
421.8496490842
 20
156.4019318611
 10
424.4227202765
 20
154.6892258504
 10
426.8448523451
 20
152.8697897619
 10
429.1072071927
 20
150.9502625203
 10
431.2015297319
 20
148.9376482726
 10
433.1201780067
 20
146.8392908297
 10
434.8561510778
 20
144.6628468706
 10
436.4031145676
 20
142.416258003
 10
437.7554237742
 20
140.1077217862
 10
438.9081442678
 20
137.7456618185
 10
439.8570698965
 20
135.3386970006
 10
440.5987381335
 20
132.8956100859
 10
441.1304427118
 20
130.4253156339
 10
441.4502434992
 20
127.9368274809
 10
441.5569735771
 20
125.4392258504
 10
441.5569735771
 20
125.4392258504
  0
INSERT
  5
F8
330
1F
100
AcDbEntity
  8
FORMAT
 62
     7
100
AcDbBlockReference
  2
SW_CENTERMARKSYMBOL_2
 10
383.0569735771
 20
113.1814332617
 30
0.0
  0
LINE
  5
F9
330
1F
100
AcDbEntity
  8
0
  6
Continuous
 62
     7
370
    25
100
AcDbLine
 10
208.9035151849
 20
-66.1368711144
 30
0.0
 11
153.1613077737
 21
-66.1368711144
 31
0.0
  0
LINE
  5
FA
330
1F
100
AcDbEntity
  8
0
  6
Continuous
 62
     7
370
    25
100
AcDbLine
 10
206.7198399152
 20
-183.1368711144
 30
0.0
 11
208.9035151849
 21
-183.1368711144
 31
0.0
  0
LINE
  5
FB
330
1F
100
AcDbEntity
  8
0
  6
Continuous
 62
     7
370
    25
100
AcDbLine
 10
153.1613077737
 20
-183.1368711144
 30
0.0
 11
194.832447373
 21
-183.1368711144
 31
0.0
  0
LINE
  5
FC
330
1F
100
AcDbEntity
  8
0
  6
Continuous
 62
     7
370
    25
100
AcDbLine
 10
194.832447373
 20
-182.927093279
 30
0.0
 11
194.832447373
 21
-198.1368711144
 31
0.0
  0
LINE
  5
FD
330
1F
100
AcDbEntity
  8
0
  6
Continuous
 62
     7
370
    25
100
AcDbLine
 10
208.832447373
 20
-198.1368711144
 30
0.0
 11
208.832447373
 21
-183.1368711144
 31
0.0
  0
LINE
  5
FE
330
1F
100
AcDbEntity
  8
0
  6
Continuous
 62
     7
370
    25
100
AcDbLine
 10
135.5877146448
 20
-183.1368711144
 30
0.0
 11
153.1613077737
 21
-183.1368711144
 31
0.0
  0
LINE
  5
FF
330
1F
100
AcDbEntity
  8
0
  6
Continuous
 62
     7
370
    25
100
AcDbLine
 10
153.1613077737
 20
-66.1368711144
 30
0.0
 11
135.5877146448
 21
-66.1368711144
 31
0.0
  0
LINE
  5
100
330
1F
100
AcDbEntity
  8
0
  6
Continuous
 62
     7
370
    25
100
AcDbLine
 10
128.5877146448
 20
-182.7165577526
 30
0.0
 11
128.5877146448
 21
-198.1368711144
 31
0.0
  0
LINE
  5
101
330
1F
100
AcDbEntity
  8
0
  6
Continuous
 62
     7
370
    25
100
AcDbLine
 10
142.5877146448
 20
-198.1368711144
 30
0.0
 11
142.5877146448
 21
-183.1368711144
 31
0.0
  0
LWPOLYLINE
  5
102
330
1F
100
AcDbEntity
  8
0
  6
Continuous
 62
     7
370
    25
100
AcDbPolyline
 90
      105
 70
   128
 43
0.0
 10
208.9035151849
 20
-183.1368711144
 10
211.4011168153
 20
-183.0301410364
 10
213.8896049683
 20
-182.7103402491
 10
216.3598994204
 20
-182.1786356708
 10
218.802986335
 20
-181.4369674338
 10
221.209951153
 20
-180.4880418051
 10
223.5720111207
 20
-179.3353213115
 10
225.8805473374
 20
-177.9830121049
 10
228.127136205
 20
-176.4360486151
 10
230.3035801642
 20
-174.700075544
 10
232.401937607
 20
-172.7814272691
 10
234.4145518548
 20
-170.68710473
 10
236.3340790963
 20
-168.4247498824
 10
238.1535151849
 20
-166.0026178138
 10
239.8662211955
 20
-163.4295466214
 10
241.4659476497
 20
-160.7149251631
 10
242.9468573191
 20
-157.8686587981
 10
244.303546525
 20
-154.9011332438
 10
245.5310648555
 20
-151.8231766789
 10
246.6249332294
 20
-148.6460202333
 10
247.5811602396
 20
-145.3812570063
 10
248.3962567175
 20
-142.0407997649
 10
249.0672484644
 20
-138.6368374752
 10
249.5916871042
 20
-135.1817908265
 10
249.9676590171
 20
-131.6882669093
 10
250.1937923224
 20
-128.1690132136
 10
250.2692618843
 20
-124.6368711144
 10
250.1937923224
 20
-121.1047290152
 10
249.9676590171
 20
-117.5854753194
 10
249.5916871042
 20
-114.0919514022
 10
249.0672484644
 20
-110.6369047535
 10
248.3962567175
 20
-107.2329424638
 10
247.5811602396
 20
-103.8924852224
 10
246.6249332294
 20
-100.6277219954
 10
245.5310648555
 20
-97.4505655498
 10
244.303546525
 20
-94.372608985
 10
242.9468573191
 20
-91.4050834306
 10
241.4659476497
 20
-88.5588170656
 10
239.8662211955
 20
-85.8441956073
 10
238.1535151849
 20
-83.2711244149
 10
236.3340790963
 20
-80.8489923464
 10
234.4145518548
 20
-78.5866374987
 10
232.401937607
 20
-76.4923149596
 10
230.3035801642
 20
-74.5736666847
 10
228.127136205
 20
-72.8376936136
 10
225.8805473374
 20
-71.2907301238
 10
223.5720111207
 20
-69.9384209173
 10
221.209951153
 20
-68.7857004236
 10
218.802986335
 20
-67.8367747949
 10
216.3598994204
 20
-67.095106558
 10
213.8896049683
 20
-66.5634019796
 10
211.4011168153
 20
-66.2436011923
 10
208.9035151849
 20
-66.1368711144
 10
206.4059135544
 20
-66.2436011923
 10
203.9174254015
 20
-66.5634019796
 10
201.4471309494
 20
-67.095106558
 10
199.0040440348
 20
-67.8367747949
 10
196.5970792168
 20
-68.7857004236
 10
194.2350192491
 20
-69.9384209173
 10
191.9264830323
 20
-71.2907301238
 10
189.6798941648
 20
-72.8376936136
 10
187.5034502056
 20
-74.5736666847
 10
185.4050927627
 20
-76.4923149596
 10
183.392478515
 20
-78.5866374987
 10
181.4729512735
 20
-80.8489923464
 10
179.6535151849
 20
-83.2711244149
 10
177.9408091743
 20
-85.8441956073
 10
176.3410827201
 20
-88.5588170656
 10
174.8601730506
 20
-91.4050834306
 10
173.5034838448
 20
-94.372608985
 10
172.2759655142
 20
-97.4505655498
 10
171.1820971403
 20
-100.6277219954
 10
170.2258701301
 20
-103.8924852224
 10
169.4107736523
 20
-107.2329424638
 10
168.7397819054
 20
-110.6369047535
 10
168.2153432656
 20
-114.0919514022
 10
167.8393713527
 20
-117.5854753194
 10
167.6132380473
 20
-121.1047290152
 10
167.5377684855
 20
-124.6368711144
 10
167.6132380473
 20
-128.1690132136
 10
167.8393713527
 20
-131.6882669093
 10
168.2153432656
 20
-135.1817908265
 10
168.7397819054
 20
-138.6368374752
 10
169.4107736523
 20
-142.0407997649
 10
170.2258701301
 20
-145.3812570063
 10
171.1820971403
 20
-148.6460202333
 10
172.2759655142
 20
-151.8231766789
 10
173.5034838448
 20
-154.9011332438
 10
174.8601730506
 20
-157.8686587981
 10
176.3410827201
 20
-160.7149251631
 10
177.9408091743
 20
-163.4295466214
 10
179.6535151849
 20
-166.0026178138
 10
181.4729512735
 20
-168.4247498824
 10
183.392478515
 20
-170.68710473
 10
185.4050927627
 20
-172.7814272691
 10
187.5034502056
 20
-174.700075544
 10
189.6798941648
 20
-176.4360486151
 10
191.9264830323
 20
-177.9830121049
 10
194.2350192491
 20
-179.3353213115
 10
196.5970792168
 20
-180.4880418051
 10
199.0040440348
 20
-181.4369674338
 10
201.4471309494
 20
-182.1786356708
 10
203.9174254015
 20
-182.7103402491
 10
206.4059135544
 20
-183.0301410364
 10
208.9035151849
 20
-183.1368711144
  0
LWPOLYLINE
  5
103
330
1F
100
AcDbEntity
  8
0
  6
Continuous
 62
     7
370
    25
100
AcDbPolyline
 90
       92
 70
   128
 43
0.0
 10
208.9035151849
 20
-169.6368711144
 10
206.7082304126
 20
-169.5296483679
 10
204.523407172
 20
-169.2084910938
 10
202.3594571408
 20
-168.6749297527
 10
200.2266925263
 20
-167.9315070073
 10
198.1352769232
 20
-166.9817656057
 10
196.0951768792
 20
-165.830231498
 10
194.1161144002
 20
-164.4823922688
 10
192.20752062
 20
-162.9446709857
 10
190.3784908573
 20
-161.2243955909
 10
188.6377412717
 20
-159.3297639801
 10
186.9935673278
 20
-157.2698049358
 10
185.4538042631
 20
-155.0543351009
 10
184.02578975
 20
-152.693912198
 10
182.7163289278
 20
-150.1997847173
 10
181.5316619737
 20
-147.5838383119
 10
180.4774343652
 20
-144.8585391579
 10
179.558669977
 20
-142.0368745467
 10
178.7797471397
 20
-139.1322909953
 10
178.1443777755
 20
-136.158630167
 10
177.6555897087
 20
-133.1300629097
 10
177.315712237
 20
-130.0610217259
 10
177.1263650314
 20
-126.9661319941
 10
177.0884504175
 20
-123.8601422736
 10
177.2021490757
 20
-120.7578540197
 10
177.4669191801
 20
-117.6740510488
 10
177.8814989807
 20
-114.6234290863
 10
178.4439128158
 20
-111.6205257352
 10
179.1514805274
 20
-108.6796511974
 10
180.0008302331
 20
-105.8148200795
 10
180.9879143949
 20
-103.0396846062
 10
182.1080291071
 20
-100.3674695619
 10
183.3558365131
 20
-97.8109092682
 10
184.7253902423
 20
-95.3821868993
 10
186.2101637476
 20
-93.0928764231
 10
187.8030814069
 20
-90.9538874467
 10
189.4965522422
 20
-88.9754132266
 10
191.2825060939
 20
-87.1668820934
 10
193.1524320784
 20
-85.5369125217
 10
195.0974191469
 20
-84.0932720588
 10
197.1081985504
 20
-82.8428403087
 10
199.1751880091
 20
-81.7915761484
 10
201.2885373771
 20
-80.9444893302
 10
203.4381755822
 20
-80.3056166086
 10
205.6138586194
 20
-79.8780025031
 10
207.8052183682
 20
-79.6636847896
 10
210.0018120016
 20
-79.6636847896
 10
212.1931717504
 20
-79.8780025031
 10
214.3688547876
 20
-80.3056166086
 10
216.5184929927
 20
-80.9444893302
 10
218.6318423607
 20
-81.7915761484
 10
220.6988318194
 20
-82.8428403087
 10
222.7096112228
 20
-84.0932720588
 10
224.6545982914
 20
-85.5369125217
 10
226.5245242759
 20
-87.1668820934
 10
228.3104781276
 20
-88.9754132266
 10
230.0039489629
 20
-90.9538874467
 10
231.5968666222
 20
-93.0928764231
 10
233.0816401274
 20
-95.3821868993
 10
234.4511938566
 20
-97.8109092682
 10
235.6990012626
 20
-100.3674695619
 10
236.8191159749
 20
-103.0396846062
 10
237.8062001366
 20
-105.8148200795
 10
238.6555498424
 20
-108.6796511974
 10
239.363117554
 20
-111.6205257352
 10
239.9255313891
 20
-114.6234290863
 10
240.3401111897
 20
-117.6740510488
 10
240.6048812941
 20
-120.7578540197
 10
240.7185799523
 20
-123.8601422736
 10
240.6806653384
 20
-126.9661319942
 10
240.4913181327
 20
-130.0610217259
 10
240.151440661
 20
-133.1300629097
 10
239.6626525942
 20
-136.158630167
 10
239.02728323
 20
-139.1322909953
 10
238.2483603928
 20
-142.0368745467
 10
237.3295960046
 20
-144.8585391579
 10
236.2753683961
 20
-147.5838383119
 10
235.090701442
 20
-150.1997847173
 10
233.7812406198
 20
-152.693912198
 10
232.3532261067
 20
-155.0543351009
 10
230.813463042
 20
-157.2698049358
 10
229.1692890981
 20
-159.3297639801
 10
227.4285395125
 20
-161.2243955909
 10
225.5995097498
 20
-162.9446709857
 10
223.6909159696
 20
-164.4823922688
 10
221.7118534905
 20
-165.830231498
 10
219.6717534466
 20
-166.9817656057
 10
217.5803378434
 20
-167.9315070073
 10
215.4475732289
 20
-168.6749297527
 10
213.2836231977
 20
-169.2084910938
 10
211.0987999571
 20
-169.5296483679
 10
208.9035151849
 20
-169.6368711144
  0
SPLINE
  5
104
330
1F
100
AcDbEntity
  8
0
  6
Continuous
 62
     7
370
    25
100
AcDbSpline
210
0.0
220
0.0
230
1.0
 70
     8
 71
     3
 72
    15
 73
    11
 74
     0
 42
0.00000001
 43
0.00000001
 40
0.0
 40
0.0
 40
0.0
 40
0.0
 40
0.047824360926907
 40
0.1898687105896649
 40
0.3322722716972368
 40
0.4755648719721845
 40
0.6189012200008476
 40
0.7613504545964431
 40
0.9033706647539652
 40
1.0
 40
1.0
 40
1.0
 40
1.0
 10
206.7197910567263
 20
-183.1264172570609
 30
0.0
 10
206.5517830577633
 20
-183.1293107444049
 30
0.0
 10
205.8847702317977
 20
-183.1407982520363
 30
0.0
 10
204.1707956694475
 20
-183.0645578445699
 30
0.0
 10
201.8529230961104
 20
-182.9291453423766
 30
0.0
 10
199.4864905122067
 20
-182.7859034454011
 30
0.0
 10
197.3883224812971
 20
-182.7058392500201
 30
0.0
 10
195.8046107559185
 20
-182.7223883077156
 30
0.0
 10
194.9561014872477
 20
-182.8167069970319
 30
0.0
 10
194.8680852122886
 20
-182.8952793066068
 30
0.0
 10
194.832447373022
 20
-182.9270932789742
 30
0.0
  0
LINE
  5
105
330
1F
100
AcDbEntity
  8
0
  6
Continuous
 62
     7
370
    25
100
AcDbLine
 10
194.832447373
 20
-198.1368711144
 30
0.0
 11
208.832447373
 21
-198.1368711144
 31
0.0
  0
ARC
  5
106
330
1F
100
AcDbEntity
  8
0
  6
Continuous
 62
     7
370
    25
100
AcDbCircle
 10
135.5877146448
 20
-124.6368711144
 30
0.0
 40
58.5
100
AcDbArc
 50
90.0
 51
270.0
  0
ARC
  5
107
330
1F
100
AcDbEntity
  8
0
  6
Continuous
 62
     7
370
    25
100
AcDbCircle
 10
135.5877146448
 20
-124.6368711144
 30
0.0
 40
45.0
100
AcDbArc
 50
342.6280670118
 51
17.3719329882
  0
LINE
  5
108
330
1F
100
AcDbEntity
  8
0
  6
Continuous
 62
     7
370
    25
100
AcDbLine
 10
128.5877146448
 20
-198.1368711144
 30
0.0
 11
142.5877146448
 21
-198.1368711144
 31
0.0
  0
LWPOLYLINE
  5
109
330
1F
100
AcDbEntity
  8
0
  6
Continuous
 62
     1
370
    25
100
AcDbPolyline
 90
       53
 70
   128
 43
0.0
 10
153.1613077737
 20
-66.1368711144
 10
150.6637061432
 20
-66.2436011923
 10
148.1752179902
 20
-66.5634019796
 10
145.7049235382
 20
-67.095106558
 10
143.2618366235
 20
-67.8367747949
 10
140.8548718056
 20
-68.7857004236
 10
138.4928118379
 20
-69.9384209173
 10
136.1842756211
 20
-71.2907301238
 10
133.9376867535
 20
-72.8376936136
 10
131.7612427944
 20
-74.5736666847
 10
129.6628853515
 20
-76.4923149596
 10
127.6502711038
 20
-78.5866374987
 10
125.7307438622
 20
-80.8489923464
 10
123.9113077737
 20
-83.2711244149
 10
122.198601763
 20
-85.8441956073
 10
120.5988753088
 20
-88.5588170656
 10
119.1179656394
 20
-91.4050834306
 10
117.7612764335
 20
-94.372608985
 10
116.533758103
 20
-97.4505655498
 10
115.4398897291
 20
-100.6277219954
 10
114.4836627189
 20
-103.8924852224
 10
113.668566241
 20
-107.2329424638
 10
112.9975744941
 20
-110.6369047535
 10
112.4731358544
 20
-114.0919514022
 10
112.0971639415
 20
-117.5854753194
 10
111.8710306361
 20
-121.1047290152
 10
111.7955610742
 20
-124.6368711144
 10
111.8710306361
 20
-128.1690132136
 10
112.0971639415
 20
-131.6882669093
 10
112.4731358544
 20
-135.1817908265
 10
112.9975744941
 20
-138.6368374752
 10
113.668566241
 20
-142.0407997649
 10
114.4836627189
 20
-145.3812570063
 10
115.4398897291
 20
-148.6460202333
 10
116.533758103
 20
-151.8231766789
 10
117.7612764335
 20
-154.9011332438
 10
119.1179656394
 20
-157.8686587981
 10
120.5988753088
 20
-160.7149251631
 10
122.198601763
 20
-163.4295466214
 10
123.9113077737
 20
-166.0026178138
 10
125.7307438622
 20
-168.4247498824
 10
127.6502711038
 20
-170.68710473
 10
129.6628853515
 20
-172.7814272691
 10
131.7612427944
 20
-174.700075544
 10
133.9376867535
 20
-176.4360486151
 10
136.1842756211
 20
-177.9830121049
 10
138.4928118379
 20
-179.3353213115
 10
140.8548718056
 20
-180.4880418051
 10
143.2618366235
 20
-181.4369674338
 10
145.7049235382
 20
-182.1786356708
 10
148.1752179902
 20
-182.7103402491
 10
150.6637061432
 20
-183.0301410364
 10
153.1613077737
 20
-183.1368711144
  0
ARC
  5
10A
330
1F
100
AcDbEntity
  8
0
  6
Continuous
 62
     1
370
    25
100
AcDbCircle
 10
123.7201218299
 20
-124.6368711144
 30
0.0
 40
61.2870435028352
100
AcDbArc
 50
339.2516291357
 51
20.7483708643
  0
INSERT
  5
116
330
1F
100
AcDbEntity
  8
FORMAT
 62
     7
100
AcDbBlockReference
  2
SW_CENTERMARKSYMBOL_3
 10
135.5877146448
 20
-124.6368711144
 30
0.0
  0
LINE
  5
117
330
1F
100
AcDbEntity
  8
0
  6
Continuous
 62
     7
370
    25
100
AcDbLine
 10
309.081144313
 20
-152.623638645
 30
0.0
 11
309.081144313
 21
-216.9926823409
 31
0.0
  0
LINE
  5
118
330
1F
100
AcDbEntity
  8
0
  6
Continuous
 62
     7
370
    25
100
AcDbLine
 10
426.081144313
 20
-216.9926823409
 30
0.0
 11
426.081144313
 21
-152.623638645
 31
0.0
  0
LINE
  5
119
330
1F
100
AcDbEntity
  8
0
  6
Continuous
 62
     7
370
    25
100
AcDbLine
 10
368.7607579587
 20
-13.2871514299
 30
0.0
 11
367.2593855495
 21
-15.8876047162
 31
0.0
  0
LINE
  5
11A
330
1F
100
AcDbEntity
  8
0
  6
Continuous
 62
     7
370
    25
100
AcDbLine
 10
360.2593855263
 20
-28.0119603736
 30
0.0
 11
329.3450650999
 21
-81.5571338765
 31
0.0
  0
LINE
  5
11B
330
1F
100
AcDbEntity
  8
0
  6
Continuous
 62
     7
370
    25
100
AcDbLine
 10
430.6700372684
 20
-140.0571340052
 30
0.0
 11
470.0857301272
 21
-71.7871515587
 31
0.0
  0
LINE
  5
11C
330
1F
100
AcDbEntity
  8
0
  6
Continuous
 62
     7
370
    25
100
AcDbLine
 10
329.8628098355
 20
-178.9702583802
 30
0.0
 11
319.10851146
 21
-172.7619340759
 31
0.0
  0
LINE
  5
11D
330
1F
100
AcDbEntity
  8
0
  6
Continuous
 62
     7
370
    25
100
AcDbLine
 10
312.1090803315
 20
-184.8866181492
 30
0.0
 11
322.8646286521
 21
-191.0956640314
 31
0.0
  0
SPLINE
  5
11E
330
1F
100
AcDbEntity
  8
0
  6
Continuous
 62
     7
370
    25
100
AcDbSpline
210
0.0
220
0.0
230
1.0
 70
     8
 71
     3
 72
    22
 73
    18
 74
     0
 42
0.00000001
 43
0.00000001
 40
0.0
 40
0.0
 40
0.0
 40
0.0
 40
0.0112427940498047
 40
0.089340507418514
 40
0.1646171309846254
 40
0.2381279483449455
 40
0.3104485019386285
 40
0.382087952928696
 40
0.4534754432646644
 40
0.5249538079135987
 40
0.5967344004703979
 40
0.6689615326531952
 40
0.7417419463721849
 40
0.81510395189846
 40
0.8890087838845485
 40
0.9633644420730741
 40
1.0
 40
1.0
 40
1.0
 40
1.0
 10
426.0810838577088
 20
-152.6365432306634
 30
0.0
 10
426.0810696038138
 20
-152.6382404170509
 30
0.0
 10
426.080956335687
 20
-152.6517270550139
 30
0.0
 10
426.0835329092039
 20
-152.5516632549492
 30
0.0
 10
426.1069778806372
 20
-152.2686632213184
 30
0.0
 10
426.163468867233
 20
-151.8105345771115
 30
0.0
 10
426.2644037972246
 20
-151.197060230633
 30
0.0
 10
426.419949420069
 20
-150.4351567309653
 30
0.0
 10
426.6388281029284
 20
-149.5366352406033
 30
0.0
 10
426.9281518327921
 20
-148.5141099960983
 30
0.0
 10
427.2931271958341
 20
-147.3825359539396
 30
0.0
 10
427.7368053970337
 20
-146.1587548407213
 30
0.0
 10
428.2600569189592
 20
-144.8612639676271
 30
0.0
 10
428.8610933231435
 20
-143.5098211108217
 30
0.0
 10
429.5363467088411
 20
-142.1263248658126
 30
0.0
 10
430.1498824769905
 20
-140.969014340073
 30
0.0
 10
430.5409539017858
 20
-140.2834293032736
 30
0.0
 10
430.6700372683628
 20
-140.0571340052442
 30
0.0
  0
SPLINE
  5
11F
330
1F
100
AcDbEntity
  8
0
  6
Continuous
 62
     7
370
    25
100
AcDbSpline
210
0.0
220
0.0
230
1.0
 70
     8
 71
     3
 72
    24
 73
    20
 74
     0
 42
0.00000001
 43
0.00000001
 40
0.0
 40
0.0
 40
0.0
 40
0.0
 40
0.0363015048382321
 40
0.0988791090857523
 40
0.1615308346077343
 40
0.2242951150064603
 40
0.2872127391886247
 40
0.3503220548391056
 40
0.4136573698189178
 40
0.4772469854940055
 40
0.5411107860870545
 40
0.6052573642175263
 40
0.6696807650735312
 40
0.7343570946332126
 40
0.799241459404017
 40
0.8642659484623113
 40
0.9293063192239899
 40
0.9895413116633283
 40
1.0
 40
1.0
 40
1.0
 40
1.0
 10
329.3450650999278
 20
-81.55713387647614
 30
0.0
 10
328.8865137697594
 20
-82.36085379470096
 30
0.0
 10
327.6374981380609
 20
-84.55004980248876
 30
0.0
 10
325.6980769232458
 20
-88.18157629246417
 30
0.0
 10
323.5626821508072
 20
-92.46442128213323
 30
0.0
 10
321.5575212409314
 20
-96.80999409898547
 30
0.0
 10
319.6835567918972
 20
-101.2135387396537
 30
0.0
 10
317.9448986856783
 20
-105.6720543758353
 30
0.0
 10
316.3453131557424
 20
-110.1819668654909
 30
0.0
 10
314.8892098191296
 20
-114.7395565541898
 30
0.0
 10
313.5813966918638
 20
-119.340623073859
 30
0.0
 10
312.4271332009434
 20
-123.9803103795171
 30
0.0
 10
311.4320702809201
 20
-128.6528475938317
 30
0.0
 10
310.6021061221623
 20
-133.3512995470533
 30
0.0
 10
309.9433710179601
 20
-138.0673114049013
 30
0.0
 10
309.4614619388582
 20
-142.7902162191615
 30
0.0
 10
309.170358393597
 20
-147.3936087090887
 30
0.0
 10
309.0852419964549
 20
-150.6694009251919
 30
0.0
 10
309.0816724108394
 20
-152.3717820020882
 30
0.0
 10
309.0811443129524
 20
-152.6236386449742
 30
0.0
  0
LINE
  5
120
330
1F
100
AcDbEntity
  8
0
  6
Continuous
 62
     7
370
    25
100
AcDbLine
 10
376.5645795215
 20
-21.2593788548
 30
0.0
 11
365.9506111899
 21
-15.1320653606
 31
0.0
  0
LINE
  5
121
330
1F
100
AcDbEntity
  8
0
  6
Continuous
 62
     7
370
    25
100
AcDbLine
 10
358.9511800615
 20
-27.2567494339
 30
0.0
 11
369.5650777573
 21
-33.384022151
 31
0.0
  0
LWPOLYLINE
  5
122
330
1F
100
AcDbEntity
  8
0
  6
Continuous
 62
     7
370
    25
100
AcDbPolyline
 90
      105
 70
   128
 43
0.0
 10
326.2153976135
 20
-193.1127450701
 10
328.7884688059
 20
-191.7144779898
 10
331.5030902642
 20
-190.4084483359
 10
334.3493566292
 20
-189.1994216689
 10
337.3168821836
 20
-188.091809596
 10
340.3948387484
 20
-187.0896536736
 10
343.571995194
 20
-186.1966106599
 10
346.836758421
 20
-185.415939172
 10
350.1772156624
 20
-184.7504877955
 10
353.5811779521
 20
-184.2026846904
 10
357.0362246008
 20
-183.7745287307
 10
360.529748518
 20
-183.4675822112
 10
364.0490022137
 20
-183.2829651464
 10
367.581144313
 20
-183.2213511839
 10
371.1132864122
 20
-183.2829651464
 10
374.6325401079
 20
-183.4675822112
 10
378.1260640251
 20
-183.7745287307
 10
381.5811106738
 20
-184.2026846904
 10
384.9850729635
 20
-184.7504877955
 10
388.3255302049
 20
-185.415939172
 10
391.5902934319
 20
-186.1966106599
 10
394.7674498775
 20
-187.0896536736
 10
397.8454064423
 20
-188.091809596
 10
400.8129319967
 20
-189.1994216689
 10
403.6591983617
 20
-190.4084483359
 10
406.37381982
 20
-191.7144779898
 10
408.9468910124
 20
-193.1127450701
 10
411.369023081
 20
-194.5981474517
 10
413.6313779286
 20
-196.1652650626
 10
415.7257004677
 20
-197.8083796604
 10
417.6443487426
 20
-199.5214956982
 10
419.3803218137
 20
-201.2983622015
 10
420.9272853035
 20
-203.1324955769
 10
422.27959451
 20
-205.0172032707
 10
423.4323150037
 20
-206.9456081889
 10
424.3812406324
 20
-208.9106737912
 10
425.1229088694
 20
-210.9052297662
 10
425.6546134477
 20
-212.9219981954
 10
425.974414235
 20
-214.9536201097
 10
426.081144313
 20
-216.9926823409
 10
425.974414235
 20
-219.0317445721
 10
425.6546134477
 20
-221.0633664864
 10
425.1229088694
 20
-223.0801349156
 10
424.3812406324
 20
-225.0746908906
 10
423.4323150037
 20
-227.0397564928
 10
422.27959451
 20
-228.9681614111
 10
420.9272853035
 20
-230.8528691049
 10
419.3803218137
 20
-232.6870024803
 10
417.6443487426
 20
-234.4638689835
 10
415.7257004677
 20
-236.1769850214
 10
413.6313779286
 20
-237.8200996192
 10
411.369023081
 20
-239.38721723
 10
408.9468910124
 20
-240.8726196117
 10
406.37381982
 20
-242.2708866919
 10
403.6591983617
 20
-243.5769163459
 10
400.8129319967
 20
-244.7859430128
 10
397.8454064423
 20
-245.8935550857
 10
394.7674498775
 20
-246.8957110082
 10
391.5902934319
 20
-247.7887540219
 10
388.3255302049
 20
-248.5694255098
 10
384.9850729635
 20
-249.2348768862
 10
381.5811106738
 20
-249.7826799914
 10
378.1260640251
 20
-250.210835951
 10
374.6325401079
 20
-250.5177824705
 10
371.1132864122
 20
-250.7023995354
 10
367.581144313
 20
-250.7640134979
 10
364.0490022137
 20
-250.7023995354
 10
360.529748518
 20
-250.5177824705
 10
357.0362246008
 20
-250.210835951
 10
353.5811779521
 20
-249.7826799914
 10
350.1772156624
 20
-249.2348768862
 10
346.836758421
 20
-248.5694255098
 10
343.571995194
 20
-247.7887540219
 10
340.3948387484
 20
-246.8957110082
 10
337.3168821836
 20
-245.8935550857
 10
334.3493566292
 20
-244.7859430128
 10
331.5030902642
 20
-243.5769163459
 10
328.7884688059
 20
-242.2708866919
 10
326.2153976135
 20
-240.8726196117
 10
323.7932655449
 20
-239.38721723
 10
321.5309106973
 20
-237.8200996192
 10
319.4365881582
 20
-236.1769850214
 10
317.5179398833
 20
-234.4638689835
 10
315.7819668122
 20
-232.6870024803
 10
314.2350033224
 20
-230.8528691049
 10
312.8826941159
 20
-228.9681614111
 10
311.7299736222
 20
-227.0397564928
 10
310.7810479935
 20
-225.0746908906
 10
310.0393797565
 20
-223.0801349156
 10
309.5076751782
 20
-221.0633664864
 10
309.1878743909
 20
-219.0317445721
 10
309.081144313
 20
-216.9926823409
 10
309.1878743909
 20
-214.9536201097
 10
309.5076751782
 20
-212.9219981954
 10
310.0393797565
 20
-210.9052297662
 10
310.7810479935
 20
-208.9106737912
 10
311.7299736222
 20
-206.9456081889
 10
312.8826941159
 20
-205.0172032707
 10
314.2350033224
 20
-203.1324955769
 10
315.7819668122
 20
-201.2983622015
 10
317.5179398833
 20
-199.5214956982
 10
319.4365881582
 20
-197.8083796604
 10
321.5309106973
 20
-196.1652650626
 10
323.7932655449
 20
-194.5981474517
 10
326.2153976135
 20
-193.1127450701
  0
SPLINE
  5
123
330
1F
100
AcDbEntity
  8
0
  6
Continuous
 62
     7
370
    25
100
AcDbSpline
210
0.0
220
0.0
230
1.0
 70
     8
 71
     3
 72
    17
 73
    13
 74
     0
 42
0.00000001
 43
0.00000001
 40
0.0
 40
0.0
 40
0.0
 40
0.0
 40
0.0710676529623295
 40
0.178696359656434
 40
0.2858041491381552
 40
0.3923692488115657
 40
0.4992043852542144
 40
0.6067063985066805
 40
0.7142406208808476
 40
0.8211091449937408
 40
0.9276563491076302
 40
1.0
 40
1.0
 40
1.0
 40
1.0
 10
322.9064990274151
 20
-191.0175607976941
 30
0.0
 10
323.144394488846
 20
-191.1565569444645
 30
0.0
 10
323.742571734956
 20
-191.5060563918053
 30
0.0
 10
325.1044070752113
 20
-191.2610056073706
 30
0.0
 10
326.7693955471472
 20
-190.4096130555916
 30
0.0
 10
328.4484914573964
 20
-188.9625942885211
 30
0.0
 10
329.9235639411323
 20
-187.1029192055281
 30
0.0
 10
331.0046438657623
 20
-185.0050958977052
 30
0.0
 10
331.5351660957824
 20
-182.8819916562451
 30
0.0
 10
331.4167245064544
 20
-181.0021282982665
 30
0.0
 10
330.817652662362
 20
-179.6234014118454
 30
0.0
 10
330.1051997003029
 20
-179.2105520641208
 30
0.0
 10
329.8170829692233
 20
-179.0435953514264
 30
0.0
  0
LWPOLYLINE
  5
124
330
1F
100
AcDbEntity
  8
0
  6
Continuous
 62
     7
370
    25
100
AcDbPolyline
 90
       92
 70
   128
 43
0.0
 10
335.7613391596
 20
-198.6234998249
 10
333.6418723184
 20
-199.9345795084
 10
331.6841415642
 20
-201.3269488202
 10
329.8974763754
 20
-202.7939724863
 10
328.2903910255
 20
-204.3286594709
 10
326.8705440079
 20
-205.9236962917
 10
325.6447015402
 20
-207.5714818717
 10
324.6187053201
 20
-209.2641637624
 10
323.7974446867
 20
-210.9936755637
 10
323.1848333211
 20
-212.7517753642
 10
322.7837905954
 20
-214.5300850178
 10
322.5962276607
 20
-216.320130069
 10
322.6230383398
 20
-218.1133801381
 10
322.8640948678
 20
-219.9012895719
 10
323.3182485003
 20
-221.6753381676
 10
323.9833349887
 20
-223.4270717758
 10
324.8561848928
 20
-225.1481425882
 10
325.9326386853
 20
-226.8303489185
 10
327.2075665739
 20
-228.4656742875
 10
328.6748929463
 20
-230.0463256251
 10
330.3276253244
 20
-231.5647704079
 10
332.1578876855
 20
-233.013772555
 10
334.1569579962
 20
-234.3864269112
 10
336.315309776
 20
-235.6761921534
 10
338.6226574957
 20
-236.876921963
 10
341.0680055927
 20
-237.9828943156
 10
343.6397008698
 20
-238.9888387492
 10
346.3254880277
 20
-239.8899614805
 10
349.1125680676
 20
-240.6819682494
 10
351.9876592838
 20
-241.3610847828
 10
354.9370605575
 20
-241.9240747813
 10
357.9467166483
 20
-242.3682553412
 10
361.0022851744
 20
-242.6915097397
 10
364.0892049604
 20
-242.8922975225
 10
367.1927654275
 20
-242.9696618443
 10
370.298176697
 20
-242.923234029
 10
373.3906400697
 20
-242.7532353261
 10
376.4554185496
 20
-242.460475857
 10
379.4779070714
 20
-242.0463507538
 10
382.4437021009
 20
-241.5128335112
 10
385.3386702742
 20
-240.8624665819
 10
388.1490157496
 20
-240.0983492604
 10
390.8613459509
 20
-239.2241229138
 10
393.4627353898
 20
-238.2439536288
 10
395.9407872607
 20
-237.1625123583
 10
398.2836925181
 20
-235.9849526624
 10
400.4802861514
 20
-234.7168861494
 10
402.5201003917
 20
-233.3643557338
 10
404.3934145952
 20
-231.9338068388
 10
406.0913015665
 20
-230.4320566814
 10
407.6056701011
 20
-228.866261785
 10
408.9293035433
 20
-227.2438838754
 10
410.0558941768
 20
-225.572654322
 10
410.9800732844
 20
-223.8605372949
 10
411.6974367317
 20
-222.1156918114
 10
412.2045659551
 20
-220.3464328547
 10
412.499044253
 20
-218.5611917495
 10
412.5794683022
 20
-216.7684759827
 10
412.4454548455
 20
-214.9768286613
 10
412.0976425179
 20
-213.1947878007
 10
411.5376888038
 20
-211.4308456371
 10
410.7682621374
 20
-209.6934081583
 10
409.7930291873
 20
-207.990755045
 10
408.6166373826
 20
-206.3310002147
 10
407.2446927659
 20
-204.7220531551
 10
405.6837332782
 20
-203.1715812315
 10
403.9411976023
 20
-201.6869731489
 10
402.0253897141
 20
-200.2753037407
 10
399.9454393108
 20
-198.9433002546
 10
397.7112583032
 20
-197.6973102938
 10
395.3334935812
 20
-196.5432715678
 10
392.8234762767
 20
-195.4866835968
 10
390.193167765
 20
-194.5325815036
 10
387.4551026641
 20
-193.6855120192
 10
384.6223291012
 20
-192.9495118153
 10
381.7083465322
 20
-192.3280882683
 10
378.7270414111
 20
-191.8242027441
 10
375.6926210146
 20
-191.4402564869
 10
372.6195457376
 20
-191.1780791754
 10
369.5224601834
 20
-191.038920204
 10
366.4161233749
 20
-191.0234427283
 10
363.3153384218
 20
-191.1317205058
 10
360.2348819764
 20
-191.3632375434
 10
357.1894338165
 20
-191.716890557
 10
354.1935068895
 20
-192.1909942291
 10
351.2613781515
 20
-192.7832892396
 10
348.4070205312
 20
-193.4909530331
 10
345.6440363426
 20
-194.3106132694
 10
342.9855924636
 20
-195.2383638942
 10
340.4443575899
 20
-196.2697837533
 10
338.0324418629
 20
-197.3999576613
 10
335.7613391596
 20
-198.6234998249
  0
LWPOLYLINE
  5
125
330
1F
100
AcDbEntity
  8
0
  6
Continuous
 62
     7
370
    25
100
AcDbPolyline
 90
      105
 70
   128
 43
0.0
 10
378.0574973435
 20
-18.6572142235
 10
379.899037955
 20
-19.7206444217
 10
381.8847981082
 20
-20.8673295798
 10
384.0075319797
 20
-22.0930855681
 10
386.2594939438
 20
-23.3934397358
 10
388.6324668356
 20
-24.7636472317
 10
391.1177919342
 20
-26.1987083172
 10
393.7064005579
 20
-27.69338661
 10
396.3888471546
 20
-29.242228191
 10
399.1553437675
 20
-30.8395815055
 10
401.9957957506
 20
-32.4796179842
 10
404.8998386025
 20
-34.156353312
 10
407.8568757858
 20
-35.8636692636
 10
410.8561173926
 20
-37.595336028
 10
413.8866195155
 20
-39.3450349412
 10
416.9373241808
 20
-41.1063815415
 10
419.9970996982
 20
-42.8729488662
 10
423.0547812784
 20
-44.6382909027
 10
426.0992117732
 20
-46.3959661094
 10
429.1192823856
 20
-48.13956092
 10
432.1039732057
 20
-49.8627131462
 10
435.0423934202
 20
-51.5591351923
 10
437.9238210525
 20
-53.2226369983
 10
440.7377420856
 20
-54.8471486266
 10
443.4738888269
 20
-56.4267424103
 10
446.1222773735
 20
-57.955654583
 10
448.6732440429
 20
-59.42830631
 10
451.1174806344
 20
-60.8393240449
 10
453.4460683937
 20
-62.1835591369
 10
455.6505105566
 20
-63.4561066181
 10
457.7227633528
 20
-64.6523231006
 10
459.6552653564
 20
-65.7678437202
 10
461.4409650773
 20
-66.7985980632
 10
463.0733466908
 20
-67.7408250187
 10
464.5464538134
 20
-68.5910865028
 10
465.8549112371
 20
-69.3462800035
 10
466.9939445425
 20
-70.0036499016
 10
467.9593975206
 20
-70.5607975257
 10
468.7477473384
 20
-71.0156899045
 10
469.3561173926
 20
-71.366667185
 10
469.7822878071
 20
-71.6124486893
 10
470.0247035322
 20
-71.7521375872
 10
470.0824800191
 20
-71.7852241691
 10
469.9554064478
 20
-71.7115877057
 10
469.6439464959
 20
-71.5314968884
 10
469.149236647
 20
-71.2456088491
 10
468.4730820437
 20
-70.8549667622
 10
467.6179499008
 20
-70.3609960384
 10
466.5869605029
 20
-69.7654991233
 10
465.3838758183
 20
-69.0706489205
 10
464.0130857726
 20
-68.2789808631
 10
462.4795922301
 20
-67.3933836619
 10
460.7889907423
 20
-66.4170887651
 10
458.9474501309
 20
-65.3536585669
 10
456.9616899777
 20
-64.2069734088
 10
454.8389561062
 20
-62.9812174205
 10
452.586994142
 20
-61.6808632527
 10
450.2140212503
 20
-60.3106557568
 10
447.7286961517
 20
-58.8755946714
 10
445.140087528
 20
-57.3809163786
 10
442.4576409313
 20
-55.8320747975
 10
439.6911443184
 20
-54.2347214831
 10
436.8506923353
 20
-52.5946850043
 10
433.9466494834
 20
-50.9179496765
 10
430.9896123
 20
-49.210633725
 10
427.9903706932
 20
-47.4789669605
 10
424.9598685704
 20
-45.7292680473
 10
421.909163905
 20
-43.967921447
 10
418.8493883877
 20
-42.2013541223
 10
415.7917068074
 20
-40.4360120858
 10
412.7472763127
 20
-38.6783368792
 10
409.7272057002
 20
-36.9347420686
 10
406.7425148802
 20
-35.2115898424
 10
403.8040946656
 20
-33.5151677962
 10
400.9226670333
 20
-31.8516659902
 10
398.1087460002
 20
-30.227154362
 10
395.372599259
 20
-28.6475605783
 10
392.7242107124
 20
-27.1186484056
 10
390.1732440429
 20
-25.6459966786
 10
387.7290074514
 20
-24.2349789437
 10
385.4004196921
 20
-22.8907438516
 10
383.1959775292
 20
-21.6181963705
 10
381.1237247331
 20
-20.421979888
 10
379.1912227295
 20
-19.3064592684
 10
377.4055230086
 20
-18.2757049254
 10
375.7731413951
 20
-17.3334779699
 10
374.3000342725
 20
-16.4832164858
 10
372.9915768488
 20
-15.7280229851
 10
371.8525435434
 20
-15.0706530869
 10
370.8870905652
 20
-14.5135054629
 10
370.0987407475
 20
-14.0586130841
 10
369.4903706932
 20
-13.7076358035
 10
369.0642002788
 20
-13.4618542993
 10
368.8217845537
 20
-13.3221654014
 10
368.7640080668
 20
-13.2890788195
 10
368.8910816381
 20
-13.3627152829
 10
369.20254159
 20
-13.5428061002
 10
369.6972514389
 20
-13.8286941395
 10
370.3734060422
 20
-14.2193362263
 10
371.228538185
 20
-14.7133069501
 10
372.259527583
 20
-15.3088038652
 10
373.4626122676
 20
-16.003654068
 10
374.8334023133
 20
-16.7953221255
 10
376.3668958558
 20
-17.6809193267
 10
378.0574973435
 20
-18.6572142235
  0
SPLINE
  5
126
330
1F
100
AcDbEntity
  8
0
  6
Continuous
 62
     7
370
    25
100
AcDbSpline
210
0.0
220
0.0
230
1.0
 70
     8
 71
     3
 72
    17
 73
    13
 74
     0
 42
0.00000001
 43
0.00000001
 40
0.0
 40
0.0
 40
0.0
 40
0.0
 40
0.0716671706826548
 40
0.1782255619893415
 40
0.2852957345419924
 40
0.3929156229963346
 40
0.5002636096664207
 40
0.6069337653969185
 40
0.7135813801875464
 40
0.820892128326057
 40
0.92852188267918
 40
1.0
 40
1.0
 40
1.0
 40
1.0
 10
369.6061073745877
 20
-33.30720318812011
 30
0.0
 10
369.8697382356961
 20
-33.45959299659076
 30
0.0
 10
370.5253488581221
 20
-33.83856371634184
 30
0.0
 10
372.0228839794955
 20
-33.67366251245177
 30
0.0
 10
373.7983607797589
 20
-32.89328066717903
 30
0.0
 10
375.5191463868431
 20
-31.46151020475679
 30
0.0
 10
376.9338768513448
 20
-29.55410780091436
 30
0.0
 10
377.8740655619086
 20
-27.38201577939328
 30
0.0
 10
378.2552232154464
 20
-25.18564688954939
 30
0.0
 10
378.0481493114096
 20
-23.25231642454539
 30
0.0
 10
377.4412006363834
 20
-21.86435978358203
 30
0.0
 10
376.7814624171959
 20
-21.48532492713681
 30
0.0
 10
376.5181750173101
 20
-21.33406023014467
 30
0.0
  0
LWPOLYLINE
  5
127
330
1F
100
AcDbEntity
  8
0
  6
Continuous
 62
     7
370
    25
100
AcDbPolyline
 90
       37
 70
   128
 43
0.0
 10
310.6590484274
 20
-181.6817045039
 10
310.7342462135
 20
-180.6457579782
 10
310.957554725
 20
-179.5544666478
 10
311.3221888459
 20
-178.4409888474
 10
311.8170693528
 20
-177.3391570366
 10
312.427159552
 20
-176.2824498174
 10
313.1339221616
 20
-175.302974704
 10
313.9158825572
 20
-174.430492552
 10
314.749281268
 20
-173.6915132901
 10
315.6087958957
 20
-173.1084904293
 10
316.4683105235
 20
-172.6991388242
 10
317.3017092343
 20
-172.4758964161
 10
318.0836696299
 20
-172.4455463126
 10
318.7904322394
 20
-172.6090106863
 10
319.4005224387
 20
-172.9613227549
 10
319.8954029456
 20
-173.4917776945
 10
320.2600370665
 20
-174.1842579002
 10
320.483345578
 20
-175.0177227112
 10
320.558543364
 20
-175.9668477212
 10
320.483345578
 20
-177.0027942469
 10
320.2600370665
 20
-178.0940855773
 10
319.8954029456
 20
-179.2075633777
 10
319.4005224387
 20
-180.3093951885
 10
318.7904322394
 20
-181.3661024077
 10
318.0836696299
 20
-182.3455775211
 10
317.3017092343
 20
-183.2180596731
 10
316.4683105235
 20
-183.9570389349
 10
315.6087958957
 20
-184.5400617957
 10
314.749281268
 20
-184.9494134009
 10
313.9158825572
 20
-185.172655809
 10
313.1339221616
 20
-185.2030059125
 10
312.427159552
 20
-185.0395415388
 10
311.8170693528
 20
-184.6872294702
 10
311.3221888459
 20
-184.1567745306
 10
310.957554725
 20
-183.4642943249
 10
310.7342462135
 20
-182.6308295139
 10
310.6590484274
 20
-181.6817045039
  0
LWPOLYLINE
  5
128
330
1F
100
AcDbEntity
  8
0
  6
Continuous
 62
     7
370
    25
100
AcDbPolyline
 90
       31
 70
   128
 43
0.0
 10
312.0732619898
 20
-180.8652963921
 10
312.1505218883
 20
-179.9718532979
 10
312.3789249556
 20
-179.0282555741
 10
312.7484888817
 20
-178.075742969
 10
313.2430619495
 20
-177.1559448541
 10
313.8410289428
 20
-176.3090608207
 10
314.5162558346
 20
-175.572103765
 10
315.2392319697
 20
-174.9772822465
 10
315.9783598218
 20
-174.5505928198
 10
316.7013359569
 20
-174.3106838605
 10
317.3765628487
 20
-174.2680405412
 10
317.974529842
 20
-174.4245265796
 10
318.4691029098
 20
-174.7733027849
 10
318.8386668358
 20
-175.2991259634
 10
319.0670699031
 20
-175.9790151189
 10
319.1443298017
 20
-176.783255833
 10
319.0670699031
 20
-177.6766989271
 10
318.8386668358
 20
-178.620296651
 10
318.4691029098
 20
-179.5728092561
 10
317.974529842
 20
-180.492607371
 10
317.3765628487
 20
-181.3394914044
 10
316.7013359569
 20
-182.0764484601
 10
315.9783598218
 20
-182.6712699786
 10
315.2392319697
 20
-183.0979594053
 10
314.5162558346
 20
-183.3378683646
 10
313.8410289428
 20
-183.3805116839
 10
313.2430619495
 20
-183.2240256455
 10
312.7484888817
 20
-182.8752494402
 10
312.3789249556
 20
-182.3494262617
 10
312.1505218883
 20
-181.6695371061
 10
312.0732619898
 20
-180.8652963921
  0
LWPOLYLINE
  5
129
330
1F
100
AcDbEntity
  8
0
  6
Continuous
 62
     7
370
    25
100
AcDbPolyline
 90
       92
 70
   128
 43
0.0
 10
387.6034388895
 20
-24.1679689783
 10
386.1269560715
 20
-23.3153222759
 10
384.8091452288
 20
-22.5542763433
 10
383.6562863301
 20
-21.888457911
 10
382.673873273
 20
-21.321039907
 10
381.8665877032
 20
-20.8547263365
 10
381.2382767041
 20
-20.4917393959
 10
380.7919344638
 20
-20.2338088834
 10
380.5296880061
 20
-20.0821639554
 10
380.452787055
 20
-20.0375272689
 10
380.5615980785
 20
-20.1001115381
 10
380.8556025425
 20
-20.2696185205
 10
381.3333993819
 20
-20.5452404381
 10
381.9927116771
 20
-20.9256638269
 10
382.8303975048
 20
-21.4090757963
 10
383.8424649106
 20
-21.9931726681
 10
385.0240909323
 20
-22.6751709546
 10
386.3696445838
 20
-23.4518206235
 10
387.8727136894
 20
-24.3194205855
 10
389.5261354401
 20
-25.2738363315
 10
391.3220305283
 20
-26.3105196359
 10
393.2518406962
 20
-27.4245302307
 10
395.3063695194
 20
-28.6105593481
 10
397.4758262324
 20
-29.8629550192
 10
399.7498723862
 20
-31.1757490083
 10
402.1176711151
 20
-32.5426852542
 10
404.5679387799
 20
-33.9572496831
 10
407.0889987393
 20
-35.4127012515
 10
409.6688369946
 20
-36.9021040697
 10
412.2951594417
 20
-38.4183604551
 10
414.9554504579
 20
-39.9542447555
 10
417.6370325453
 20
-41.5024377828
 10
420.3271267438
 20
-43.0555616921
 10
423.0129135296
 20
-44.6062151407
 10
425.6815939057
 20
-46.1470085588
 10
428.3204503945
 20
-47.6705993641
 10
430.9169076434
 20
-49.1697269525
 10
433.458592351
 20
-50.6372472983
 10
435.9333922323
 20
-52.066166999
 10
438.3295137387
 20
-53.4496766012
 10
440.6355382602
 20
-54.7811830518
 10
442.8404765397
 20
-56.0543411161
 10
444.9338210422
 20
-57.2630836162
 10
446.9055960279
 20
-58.4016503435
 10
448.746405091
 20
-59.4646155092
 10
450.4474759379
 20
-60.4469136001
 10
452.0007021916
 20
-61.3438635185
 10
453.3986820214
 20
-62.1511908896
 10
454.634753417
 20
-62.8650484308
 10
455.7030259352
 20
-63.4820342858
 10
456.5984087709
 20
-63.9992082361
 10
457.3166350172
 20
-64.4141057123
 10
457.854281999
 20
-64.7247495388
 10
458.2087875835
 20
-64.9296593565
 10
458.3784623902
 20
-65.0278586768
 10
458.3624978414
 20
-65.0188795351
 10
458.1609700154
 20
-64.9027647212
 10
457.774839284
 20
-64.680067575
 10
457.2059457362
 20
-64.3518493499
 10
456.4570004085
 20
-63.9196741551
 10
455.5315723668
 20
-63.3856015023
 10
454.4340716969
 20
-62.7521764908
 10
453.1697284894
 20
-62.0224176794
 10
451.7445679155
 20
-61.1998027011
 10
450.1653815142
 20
-60.2882516909
 10
448.4396948281
 20
-59.2921086044
 10
446.5757315399
 20
-58.2161205171
 10
444.5823742836
 20
-57.0654150022
 10
442.4691223143
 20
-55.8454756956
 10
440.24604624
 20
-54.5621161637
 10
437.9237400306
 20
-53.2214521989
 10
435.5132705327
 20
-51.8298726756
 10
433.0261247312
 20
-50.3940091041
 10
430.4741550086
 20
-48.920704028
 10
427.8695226626
 20
-47.4169784171
 10
425.2246399526
 20
-45.8899982086
 10
422.5521109492
 20
-44.3470401586
 10
419.86467147
 20
-42.795457165
 10
417.1751283882
 20
-41.2426432272
 10
414.4962986012
 20
-39.6959982108
 10
411.840947953
 20
-38.1628925836
 10
409.2217303986
 20
-36.6506322922
 10
406.6511277025
 20
-35.1664239455
 10
404.1413899571
 20
-33.7173404722
 10
401.7044772057
 20
-32.3102874149
 10
399.3520024474
 20
-30.9519700222
 10
397.0951762958
 20
-29.6488612951
 10
394.944753555
 20
-28.4071711401
 10
392.9109819689
 20
-27.2328167763
 10
391.0035533852
 20
-26.1313945369
 10
389.2315575697
 20
-25.1081532006
 10
387.6034388895
 20
-24.1679689783
  0
LWPOLYLINE
  5
12A
330
1F
100
AcDbEntity
  8
0
  6
Continuous
 62
     7
370
    25
100
AcDbPolyline
 90
       37
 70
   128
 43
0.0
 10
357.5011481574
 20
-24.0518357886
 10
357.5763459435
 20
-23.0158892629
 10
357.799654455
 20
-21.9245979324
 10
358.1642885759
 20
-20.811120132
 10
358.6591690828
 20
-19.7092883213
 10
359.269259282
 20
-18.6525811021
 10
359.9760218916
 20
-17.6731059887
 10
360.7579822872
 20
-16.8006238367
 10
361.5913809979
 20
-16.0616445748
 10
362.4508956257
 20
-15.478621714
 10
363.3104102535
 20
-15.0692701089
 10
364.1438089643
 20
-14.8460277008
 10
364.9257693599
 20
-14.8156775973
 10
365.6325319694
 20
-14.979141971
 10
366.2426221687
 20
-15.3314540396
 10
366.7375026756
 20
-15.8619089792
 10
367.1021367964
 20
-16.5543891848
 10
367.325445308
 20
-17.3878539959
 10
367.400643094
 20
-18.3369790058
 10
367.325445308
 20
-19.3729255315
 10
367.1021367964
 20
-20.464216862
 10
366.7375026756
 20
-21.5776946624
 10
366.2426221687
 20
-22.6795264732
 10
365.6325319694
 20
-23.7362336923
 10
364.9257693599
 20
-24.7157088058
 10
364.1438089643
 20
-25.5881909578
 10
363.3104102535
 20
-26.3271702196
 10
362.4508956257
 20
-26.9101930804
 10
361.5913809979
 20
-27.3195446856
 10
360.7579822872
 20
-27.5427870937
 10
359.9760218916
 20
-27.5731371971
 10
359.269259282
 20
-27.4096728234
 10
358.6591690828
 20
-27.0573607548
 10
358.1642885759
 20
-26.5269058152
 10
357.799654455
 20
-25.8344256096
 10
357.5763459435
 20
-25.0009607985
 10
357.5011481574
 20
-24.0518357886
  0
LWPOLYLINE
  5
12B
330
1F
100
AcDbEntity
  8
0
  6
Continuous
 62
     7
370
    25
100
AcDbPolyline
 90
       31
 70
   128
 43
0.0
 10
358.9153617198
 20
-23.2354276768
 10
358.9926216183
 20
-22.3419845826
 10
359.2210246856
 20
-21.3983868588
 10
359.5905886116
 20
-20.4458742536
 10
360.0851616794
 20
-19.5260761387
 10
360.6831286728
 20
-18.6791921054
 10
361.3583555646
 20
-17.9422350496
 10
362.0813316997
 20
-17.3474135311
 10
362.8204595517
 20
-16.9207241045
 10
363.5434356868
 20
-16.6808151451
 10
364.2186625787
 20
-16.6381718258
 10
364.816629572
 20
-16.7946578642
 10
365.3112026398
 20
-17.1434340696
 10
365.6807665658
 20
-17.6692572481
 10
365.9091696331
 20
-18.3491464036
 10
365.9864295317
 20
-19.1533871177
 10
365.9091696331
 20
-20.0468302118
 10
365.6807665658
 20
-20.9904279357
 10
365.3112026398
 20
-21.9429405408
 10
364.816629572
 20
-22.8627386557
 10
364.2186625787
 20
-23.709622689
 10
363.5434356868
 20
-24.4465797448
 10
362.8204595517
 20
-25.0414012633
 10
362.0813316997
 20
-25.4680906899
 10
361.3583555646
 20
-25.7079996493
 10
360.6831286728
 20
-25.7506429686
 10
360.0851616794
 20
-25.5941569302
 10
359.5905886116
 20
-25.2453807248
 10
359.2210246856
 20
-24.7195575464
 10
358.9926216183
 20
-24.0396683908
 10
358.9153617198
 20
-23.2354276768
  0
LWPOLYLINE
  5
12C
330
1F
100
AcDbEntity
  8
0
  6
Continuous
 62
     1
370
    25
100
AcDbPolyline
 90
       40
 70
   128
 43
0.0
 10
326.2153976135
 20
-128.7437013742
 10
328.7884688059
 20
-127.3454342939
 10
331.5030902642
 20
-126.03940464
 10
334.3493566292
 20
-124.830377973
 10
337.3168821836
 20
-123.7227659001
 10
340.3948387484
 20
-122.7206099777
 10
343.571995194
 20
-121.827566964
 10
346.836758421
 20
-121.0468954761
 10
350.1772156624
 20
-120.3814440996
 10
353.5811779521
 20
-119.8336409945
 10
357.0362246008
 20
-119.4054850348
 10
360.529748518
 20
-119.0985385153
 10
364.0490022137
 20
-118.9139214505
 10
367.581144313
 20
-118.852307488
 10
371.1132864122
 20
-118.9139214505
 10
374.6325401079
 20
-119.0985385153
 10
378.1260640251
 20
-119.4054850348
 10
381.5811106738
 20
-119.8336409945
 10
384.9850729635
 20
-120.3814440996
 10
388.3255302049
 20
-121.0468954761
 10
391.5902934319
 20
-121.827566964
 10
394.7674498775
 20
-122.7206099777
 10
397.8454064423
 20
-123.7227659001
 10
400.8129319967
 20
-124.830377973
 10
403.6591983617
 20
-126.03940464
 10
406.37381982
 20
-127.3454342939
 10
408.9468910124
 20
-128.7437013742
 10
411.369023081
 20
-130.2291037558
 10
413.6313779286
 20
-131.7962213667
 10
415.7257004677
 20
-133.4393359645
 10
417.6443487426
 20
-135.1524520023
 10
419.3803218137
 20
-136.9293185056
 10
420.9272853035
 20
-138.763451881
 10
422.27959451
 20
-140.6481595748
 10
423.4323150037
 20
-142.576564493
 10
424.3812406324
 20
-144.5416300953
 10
425.1229088694
 20
-146.5361860702
 10
425.6546134477
 20
-148.5529544995
 10
425.974414235
 20
-150.5845764138
 10
426.081144313
 20
-152.623638645
  0
LWPOLYLINE
  5
12D
330
1F
100
AcDbEntity
  8
0
  6
Continuous
 62
     1
370
    25
100
AcDbPolyline
 90
       14
 70
   128
 43
0.0
 10
309.081144313
 20
-152.623638645
 10
309.1878743909
 20
-150.5845764138
 10
309.5076751782
 20
-148.5529544995
 10
310.0393797565
 20
-146.5361860702
 10
310.7810479935
 20
-144.5416300953
 10
311.7299736222
 20
-142.576564493
 10
312.8826941159
 20
-140.6481595748
 10
314.2350033224
 20
-138.763451881
 10
315.7819668122
 20
-136.9293185056
 10
317.5179398833
 20
-135.1524520023
 10
319.4365881582
 20
-133.4393359645
 10
321.5309106973
 20
-131.7962213667
 10
323.7932655449
 20
-130.2291037558
 10
326.2153976135
 20
-128.7437013742
  0
LWPOLYLINE
  5
12E
330
1F
100
AcDbEntity
  8
0
  6
Continuous
 62
     1
370
    25
100
AcDbPolyline
 90
       43
 70
   128
 43
0.0
 10
338.6418044847
 20
-86.92719667
 10
340.4833450962
 20
-87.9906268682
 10
342.4691052494
 20
-89.1373120264
 10
344.5918391209
 20
-90.3630680147
 10
346.843801085
 20
-91.6634221824
 10
349.2167739768
 20
-93.0336296783
 10
351.7020990754
 20
-94.4686907638
 10
354.2907076991
 20
-95.9633690566
 10
356.9731542958
 20
-97.5122106376
 10
359.7396509087
 20
-99.1095639521
 10
362.5801028918
 20
-100.7496004308
 10
365.4841457437
 20
-102.4263357586
 10
368.4411829271
 20
-104.1336517101
 10
371.4404245339
 20
-105.8653184746
 10
374.4709266567
 20
-107.6150173878
 10
377.5216313221
 20
-109.3763639881
 10
380.5814068394
 20
-111.1429313128
 10
383.6390884197
 20
-112.9082733493
 10
386.6835189144
 20
-114.665948556
 10
389.7035895269
 20
-116.4095433666
 10
392.6882803469
 20
-118.1326955928
 10
395.6267005614
 20
-119.8291176389
 10
398.5081281937
 20
-121.4926194449
 10
401.3220492268
 20
-123.1171310732
 10
404.0581959681
 20
-124.6967248568
 10
406.7065845147
 20
-126.2256370295
 10
409.2575511841
 20
-127.6982887566
 10
411.7017877756
 20
-129.1093064914
 10
414.0303755349
 20
-130.4535415835
 10
416.2348176979
 20
-131.7260890647
 10
418.307070494
 20
-132.9223055471
 10
420.2395724976
 20
-134.0378261668
 10
422.0252722185
 20
-135.0685805098
 10
423.657653832
 20
-136.0108074653
 10
425.1307609546
 20
-136.8610689494
 10
426.4392183783
 20
-137.6162624501
 10
427.5782516837
 20
-138.2736323482
 10
428.5437046619
 20
-138.8307799723
 10
429.3320544796
 20
-139.2856723511
 10
429.9404245339
 20
-139.6366496316
 10
430.3665949483
 20
-139.8824311359
 10
430.6090106734
 20
-140.0221200338
 10
430.6700372684
 20
-140.0571340052
  0
LWPOLYLINE
  5
12F
330
1F
100
AcDbEntity
  8
0
  6
Continuous
 62
     1
370
    25
100
AcDbPolyline
 90
       12
 70
   128
 43
0.0
 10
329.3450650999
 20
-81.5571338765
 10
329.348315208
 20
-81.5590612661
 10
329.4753887793
 20
-81.6326977295
 10
329.7868487312
 20
-81.8127885468
 10
330.2815585801
 20
-82.0986765861
 10
330.9577131834
 20
-82.4893186729
 10
331.8128453262
 20
-82.9832893967
 10
332.8438347242
 20
-83.5787863118
 10
334.0469194088
 20
-84.2736365146
 10
335.4177094545
 20
-85.0653045721
 10
336.951202997
 20
-85.9509017732
 10
338.6418044847
 20
-86.92719667
  0
ENDSEC
  0
SECTION
  2
OBJECTS
  0
DICTIONARY
  5
C
330
0
100
AcDbDictionary
281
     1
  3
ACAD_GROUP
350
D
  3
ACAD_LAYOUT
350
1A
  3
ACAD_MLINESTYLE
350
17
  3
ACAD_PLOTSETTINGS
350
19
  3
ACAD_PLOTSTYLENAME
350
E
  3
ACAD_SCALELIST
350
47
  3
DWGPROPS
350
130
  0
DICTIONARY
  5
D
102
{ACAD_REACTORS
330
C
102
}
330
C
100
AcDbDictionary
281
     1
  0
DICTIONARY
  5
1A
102
{ACAD_REACTORS
330
C
102
}
330
C
100
AcDbDictionary
281
     1
  3
Layout1
350
1E
  3
Layout2
350
26
  3
Model
350
22
  0
DICTIONARY
  5
17
102
{ACAD_REACTORS
330
C
102
}
330
C
100
AcDbDictionary
281
     1
  3
Standard
350
18
  0
DICTIONARY
  5
19
102
{ACAD_REACTORS
330
C
102
}
330
C
100
AcDbDictionary
281
     1
  0
ACDBDICTIONARYWDFLT
  5
E
102
{ACAD_REACTORS
330
C
102
}
330
C
100
AcDbDictionary
281
     1
  3
Normal
350
F
100
AcDbDictionaryWithDefault
340
F
  0
DICTIONARY
  5
47
102
{ACAD_REACTORS
330
C
102
}
330
C
100
AcDbDictionary
281
     1
  3
A0
350
48
  3
A1
350
49
  3
A2
350
4A
  3
A3
350
4B
  3
A4
350
4C
  3
A5
350
4D
  3
A6
350
4E
  3
A7
350
4F
  3
A8
350
50
  3
A9
350
51
  3
B0
350
52
  3
B1
350
53
  3
B2
350
54
  3
B3
350
55
  3
B4
350
56
  3
B5
350
57
  3
B6
350
58
  3
B7
350
59
  3
B8
350
5A
  3
B9
350
5B
  3
C0
350
5C
  3
C1
350
5D
  3
C2
350
5E
  3
C3
350
5F
  3
C4
350
60
  3
C5
350
61
  3
C6
350
62
  3
C7
350
63
  3
C8
350
64
  3
C9
350
65
  3
D0
350
66
  3
D1
350
67
  3
D2
350
68
  0
XRECORD
  5
130
102
{ACAD_REACTORS
330
C
102
}
330
C
100
AcDbXrecord
280
     1
  1
DWGPROPS COOKIE
  2

  3

  4

  6

  7

  8
b.kav
  9

300
=
301
=
302
=
303
=
304
=
305
=
306
=
307
=
308
=
309
=
 40
0.0
 41
2459741.478187627
 42
2459741.478187812
  1

 90
        0
  0
LAYOUT
  5
1E
102
{ACAD_REACTORS
330
1A
102
}
330
1A
100
AcDbPlotSettings
  1

  2
none_device
  4

  6

 40
0.0
 41
0.0
 42
0.0
 43
0.0
 44
0.0
 45
0.0
 46
0.0
 47
0.0
 48
0.0
 49
0.0
140
0.0
141
0.0
142
1.0
143
1.0
 70
   688
 72
     1
 73
     0
 74
     5
  7

 75
    16
147
1.0
148
0.0
149
0.0
100
AcDbLayout
  1
Layout1
 70
     1
 71
     1
 10
0.0
 20
0.0
 11
420.0
 21
297.0
 12
0.0
 22
0.0
 32
0.0
 14
1.0000000000E+20
 24
1.0000000000E+20
 34
1.0000000000E+20
 15
-1.0000000000E+20
 25
-1.0000000000E+20
 35
-1.0000000000E+20
146
0.0
 13
0.0
 23
0.0
 33
0.0
 16
1.0
 26
0.0
 36
0.0
 17
0.0
 27
1.0
 37
0.0
 76
     0
330
1B
  0
LAYOUT
  5
26
102
{ACAD_REACTORS
330
1A
102
}
330
1A
100
AcDbPlotSettings
  1

  2
none_device
  4

  6

 40
0.0
 41
0.0
 42
0.0
 43
0.0
 44
0.0
 45
0.0
 46
0.0
 47
0.0
 48
0.0
 49
0.0
140
0.0
141
0.0
142
1.0
143
1.0
 70
   688
 72
     1
 73
     0
 74
     5
  7

 75
    16
147
1.0
148
0.0
149
0.0
100
AcDbLayout
  1
Layout2
 70
     1
 71
     2
 10
0.0
 20
0.0
 11
0.0
 21
0.0
 12
0.0
 22
0.0
 32
0.0
 14
0.0
 24
0.0
 34
0.0
 15
0.0
 25
0.0
 35
0.0
146
0.0
 13
0.0
 23
0.0
 33
0.0
 16
1.0
 26
0.0
 36
0.0
 17
0.0
 27
1.0
 37
0.0
 76
     0
330
23
  0
LAYOUT
  5
22
102
{ACAD_REACTORS
330
1A
102
}
330
1A
100
AcDbPlotSettings
  1

  2
none_device
  4
Letter_(8.50_x_11.00_Inches)
  6

 40
6.35
 41
6.35
 42
6.35000508
 43
6.35000508
 44
215.9
 45
279.4
 46
0.0
 47
0.0
 48
0.0
 49
0.0
140
0.0
141
0.0
142
1.0
143
1.0
 70
  1712
 72
     1
 73
     0
 74
     0
  7

 75
     0
147
1.0
148
0.0
149
0.0
100
AcDbLayout
  1
Model
 70
     1
 71
     0
 10
0.0
 20
0.0
 11
279.4
 21
215.9
 12
0.0
 22
0.0
 32
0.0
 14
0.0
 24
0.0
 34
0.0
 15
279.4
 25
215.9
 35
0.0
146
0.0
 13
0.0
 23
0.0
 33
0.0
 16
1.0
 26
0.0
 36
0.0
 17
0.0
 27
1.0
 37
0.0
 76
     0
330
1F
331
29
  0
MLINESTYLE
  5
18
102
{ACAD_REACTORS
330
17
102
}
330
17
100
AcDbMlineStyle
  2
Standard
 70
     0
  3

 62
   256
 51
90.0
 52
90.0
 71
     2
 49
0.5
 62
   256
  6
BYLAYER
 49
-0.5
 62
   256
  6
BYLAYER
  0
ACDBPLACEHOLDER
  5
F
102
{ACAD_REACTORS
330
E
102
}
330
E
  0
SCALE
  5
48
102
{ACAD_REACTORS
330
47
102
}
330
47
100
AcDbScale
 70
     0
300
1:1
140
1.0
141
1.0
290
     1
  0
SCALE
  5
49
102
{ACAD_REACTORS
330
47
102
}
330
47
100
AcDbScale
 70
     0
300
1:2
140
1.0
141
2.0
290
     0
  0
SCALE
  5
4A
102
{ACAD_REACTORS
330
47
102
}
330
47
100
AcDbScale
 70
     0
300
1:4
140
1.0
141
4.0
290
     0
  0
SCALE
  5
4B
102
{ACAD_REACTORS
330
47
102
}
330
47
100
AcDbScale
 70
     0
300
1:5
140
1.0
141
5.0
290
     0
  0
SCALE
  5
4C
102
{ACAD_REACTORS
330
47
102
}
330
47
100
AcDbScale
 70
     0
300
1:8
140
1.0
141
8.0
290
     0
  0
SCALE
  5
4D
102
{ACAD_REACTORS
330
47
102
}
330
47
100
AcDbScale
 70
     0
300
1:10
140
1.0
141
10.0
290
     0
  0
SCALE
  5
4E
102
{ACAD_REACTORS
330
47
102
}
330
47
100
AcDbScale
 70
     0
300
1:16
140
1.0
141
16.0
290
     0
  0
SCALE
  5
4F
102
{ACAD_REACTORS
330
47
102
}
330
47
100
AcDbScale
 70
     0
300
1:20
140
1.0
141
20.0
290
     0
  0
SCALE
  5
50
102
{ACAD_REACTORS
330
47
102
}
330
47
100
AcDbScale
 70
     0
300
1:30
140
1.0
141
30.0
290
     0
  0
SCALE
  5
51
102
{ACAD_REACTORS
330
47
102
}
330
47
100
AcDbScale
 70
     0
300
1:40
140
1.0
141
40.0
290
     0
  0
SCALE
  5
52
102
{ACAD_REACTORS
330
47
102
}
330
47
100
AcDbScale
 70
     0
300
1:50
140
1.0
141
50.0
290
     0
  0
SCALE
  5
53
102
{ACAD_REACTORS
330
47
102
}
330
47
100
AcDbScale
 70
     0
300
1:100
140
1.0
141
100.0
290
     0
  0
SCALE
  5
54
102
{ACAD_REACTORS
330
47
102
}
330
47
100
AcDbScale
 70
     0
300
2:1
140
2.0
141
1.0
290
     0
  0
SCALE
  5
55
102
{ACAD_REACTORS
330
47
102
}
330
47
100
AcDbScale
 70
     0
300
4:1
140
4.0
141
1.0
290
     0
  0
SCALE
  5
56
102
{ACAD_REACTORS
330
47
102
}
330
47
100
AcDbScale
 70
     0
300
8:1
140
8.0
141
1.0
290
     0
  0
SCALE
  5
57
102
{ACAD_REACTORS
330
47
102
}
330
47
100
AcDbScale
 70
     0
300
10:1
140
10.0
141
1.0
290
     0
  0
SCALE
  5
58
102
{ACAD_REACTORS
330
47
102
}
330
47
100
AcDbScale
 70
     0
300
100:1
140
100.0
141
1.0
290
     0
  0
SCALE
  5
59
102
{ACAD_REACTORS
330
47
102
}
330
47
100
AcDbScale
 70
     0
300
1/128" = 1'-0"
140
0.0078125
141
12.0
290
     0
  0
SCALE
  5
5A
102
{ACAD_REACTORS
330
47
102
}
330
47
100
AcDbScale
 70
     0
300
1/64" = 1'-0"
140
0.015625
141
12.0
290
     0
  0
SCALE
  5
5B
102
{ACAD_REACTORS
330
47
102
}
330
47
100
AcDbScale
 70
     0
300
1/32" = 1'-0"
140
0.03125
141
12.0
290
     0
  0
SCALE
  5
5C
102
{ACAD_REACTORS
330
47
102
}
330
47
100
AcDbScale
 70
     0
300
1/16" = 1'-0"
140
0.0625
141
12.0
290
     0
  0
SCALE
  5
5D
102
{ACAD_REACTORS
330
47
102
}
330
47
100
AcDbScale
 70
     0
300
3/32" = 1'-0"
140
0.09375
141
12.0
290
     0
  0
SCALE
  5
5E
102
{ACAD_REACTORS
330
47
102
}
330
47
100
AcDbScale
 70
     0
300
1/8" = 1'-0"
140
0.125
141
12.0
290
     0
  0
SCALE
  5
5F
102
{ACAD_REACTORS
330
47
102
}
330
47
100
AcDbScale
 70
     0
300
3/16" = 1'-0"
140
0.1875
141
12.0
290
     0
  0
SCALE
  5
60
102
{ACAD_REACTORS
330
47
102
}
330
47
100
AcDbScale
 70
     0
300
1/4" = 1'-0"
140
0.25
141
12.0
290
     0
  0
SCALE
  5
61
102
{ACAD_REACTORS
330
47
102
}
330
47
100
AcDbScale
 70
     0
300
3/8" = 1'-0"
140
0.375
141
12.0
290
     0
  0
SCALE
  5
62
102
{ACAD_REACTORS
330
47
102
}
330
47
100
AcDbScale
 70
     0
300
1/2" = 1'-0"
140
0.5
141
12.0
290
     0
  0
SCALE
  5
63
102
{ACAD_REACTORS
330
47
102
}
330
47
100
AcDbScale
 70
     0
300
3/4" = 1'-0"
140
0.75
141
12.0
290
     0
  0
SCALE
  5
64
102
{ACAD_REACTORS
330
47
102
}
330
47
100
AcDbScale
 70
     0
300
1" = 1'-0"
140
1.0
141
12.0
290
     0
  0
SCALE
  5
65
102
{ACAD_REACTORS
330
47
102
}
330
47
100
AcDbScale
 70
     0
300
1-1/2" = 1'-0"
140
1.5
141
12.0
290
     0
  0
SCALE
  5
66
102
{ACAD_REACTORS
330
47
102
}
330
47
100
AcDbScale
 70
     0
300
3" = 1'-0"
140
3.0
141
12.0
290
     0
  0
SCALE
  5
67
102
{ACAD_REACTORS
330
47
102
}
330
47
100
AcDbScale
 70
     0
300
6" = 1'-0"
140
6.0
141
12.0
290
     0
  0
SCALE
  5
68
102
{ACAD_REACTORS
330
47
102
}
330
47
100
AcDbScale
 70
     0
300
1'-0" = 1'-0"
140
12.0
141
12.0
290
     0
  0
ENDSEC
  0
EOF
